  0
SECTION
  2
HEADER
  9
$ACADVER
  1
AC1015
  9
$ACADMAINTVER
 70
     6
  9
$DWGCODEPAGE
  3
ANSI_1252
  9
$INSBASE
 10
0.0
 20
0.0
 30
0.0
  9
$EXTMIN
 10
0.0
 20
0.0
 30
0.0
  9
$EXTMAX
 10
70.0
 20
42.0
 30
0.0
  9
$LIMMIN
 10
0.0
 20
0.0
  9
$LIMMAX
 10
70.0
 20
42.0
  9
$ORTHOMODE
 70
     0
  9
$REGENMODE
 70
     1
  9
$FILLMODE
 70
     1
  9
$QTEXTMODE
 70
     0
  9
$MIRRTEXT
 70
     1
  9
$LTSCALE
 40
1.0
  9
$ATTMODE
 70
     1
  9
$TEXTSIZE
 40
0.1666666667
  9
$TRACEWID
 40
0.05
  9
$TEXTSTYLE
  7
Standard
  9
$CLAYER
  8
0
  9
$CELTYPE
  6
ByLayer
  9
$CECOLOR
 62
   256
  9
$CELTSCALE
 40
1.0
  9
$DISPSILH
 70
     0
  9
$DIMSCALE
 40
1.0
  9
$DIMASZ
 40
0.09
  9
$DIMEXO
 40
0.05
  9
$DIMDLI
 40
0.38
  9
$DIMRND
 40
0.0
  9
$DIMDLE
 40
0.0
  9
$DIMEXE
 40
0.0625
  9
$DIMTP
 40
0.0
  9
$DIMTM
 40
0.0
  9
$DIMTXT
 40
0.1666666667
  9
$DIMCEN
 40
0.09
  9
$DIMTSZ
 40
0.0
  9
$DIMTOL
 70
     0
  9
$DIMLIM
 70
     0
  9
$DIMTIH
 70
     1
  9
$DIMTOH
 70
     1
  9
$DIMSE1
 70
     0
  9
$DIMSE2
 70
     0
  9
$DIMTAD
 70
     0
  9
$DIMZIN
 70
     0
  9
$DIMBLK
  1

  9
$DIMASO
 70
     1
  9
$DIMSHO
 70
     1
  9
$DIMPOST
  1

  9
$DIMAPOST
  1

  9
$DIMALT
 70
     0
  9
$DIMALTD
 70
     2
  9
$DIMALTF
 40
25.4
  9
$DIMLFAC
 40
24.0
  9
$DIMTOFL
 70
     0
  9
$DIMTVP
 40
0.0
  9
$DIMTIX
 70
     0
  9
$DIMSOXD
 70
     0
  9
$DIMSAH
 70
     0
  9
$DIMBLK1
  1

  9
$DIMBLK2
  1

  9
$DIMSTYLE
  2
Standard
  9
$DIMCLRD
 70
     0
  9
$DIMCLRE
 70
     0
  9
$DIMCLRT
 70
     0
  9
$DIMTFAC
 40
1.0
  9
$DIMGAP
 40
0.06
  9
$DIMJUST
 70
     0
  9
$DIMSD1
 70
     0
  9
$DIMSD2
 70
     0
  9
$DIMTOLJ
 70
     1
  9
$DIMTZIN
 70
     0
  9
$DIMALTZ
 70
     0
  9
$DIMALTTZ
 70
     0
  9
$DIMUPT
 70
     0
  9
$DIMDEC
 70
     2
  9
$DIMTDEC
 70
     2
  9
$DIMALTU
 70
     2
  9
$DIMALTTD
 70
     2
  9
$DIMTXSTY
  7
Standard
  9
$DIMAUNIT
 70
     0
  9
$DIMADEC
 70
     0
  9
$DIMALTRND
 40
0.0
  9
$DIMAZIN
 70
     0
  9
$DIMDSEP
 70
    46
  9
$DIMATFIT
 70
     3
  9
$DIMFRAC
 70
     0
  9
$DIMLDRBLK
  1

  9
$DIMLUNIT
 70
     2
  9
$DIMLWD
 70
    -2
  9
$DIMLWE
 70
    -2
  9
$DIMTMOVE
 70
     0
  9
$LUNITS
 70
     2
  9
$LUPREC
 70
     2
  9
$SKETCHINC
 40
0.1
  9
$FILLETRAD
 40
0.5
  9
$AUNITS
 70
     0
  9
$AUPREC
 70
     0
  9
$MENU
  1
.
  9
$ELEVATION
 40
0.0
  9
$PELEVATION
 40
0.0
  9
$THICKNESS
 40
0.0
  9
$LIMCHECK
 70
     0
  9
$CHAMFERA
 40
0.5
  9
$CHAMFERB
 40
0.5
  9
$CHAMFERC
 40
1.0
  9
$CHAMFERD
 40
0.0
  9
$SKPOLY
 70
     0
  9
$TDCREATE
 40
2455464.422832211
  9
$TDUCREATE
 40
2455464.631165544
  9
$TDUPDATE
 40
2455464.422832222
  9
$TDUUPDATE
 40
2455464.631165556
  9
$TDINDWG
 40
0.0000000116
  9
$TDUSRTIMER
 40
0.0000000116
  9
$USRTIMER
 70
     1
  9
$ANGBASE
 50
0.0
  9
$ANGDIR
 70
     0
  9
$PDMODE
 70
     0
  9
$PDSIZE
 40
-1.0
  9
$PLINEWID
 40
0.0
  9
$SPLFRAME
 70
     0
  9
$SPLINETYPE
 70
     6
  9
$SPLINESEGS
 70
     8
  9
$HANDSEED
  5
180
  9
$SURFTAB1
 70
     6
  9
$SURFTAB2
 70
     6
  9
$SURFTYPE
 70
     6
  9
$SURFU
 70
     6
  9
$SURFV
 70
     6
  9
$UCSBASE
  2

  9
$UCSNAME
  2

  9
$UCSORG
 10
0.0
 20
0.0
 30
0.0
  9
$UCSXDIR
 10
1.0
 20
0.0
 30
0.0
  9
$UCSYDIR
 10
0.0
 20
1.0
 30
0.0
  9
$UCSORTHOREF
  2

  9
$UCSORTHOVIEW
 70
     0
  9
$UCSORGTOP
 10
0.0
 20
0.0
 30
0.0
  9
$UCSORGBOTTOM
 10
0.0
 20
0.0
 30
0.0
  9
$UCSORGLEFT
 10
0.0
 20
0.0
 30
0.0
  9
$UCSORGRIGHT
 10
0.0
 20
0.0
 30
0.0
  9
$UCSORGFRONT
 10
0.0
 20
0.0
 30
0.0
  9
$UCSORGBACK
 10
0.0
 20
0.0
 30
0.0
  9
$PUCSBASE
  2

  9
$PUCSNAME
  2

  9
$PUCSORG
 10
0.0
 20
0.0
 30
0.0
  9
$PUCSXDIR
 10
1.0
 20
0.0
 30
0.0
  9
$PUCSYDIR
 10
0.0
 20
1.0
 30
0.0
  9
$PUCSORTHOREF
  2

  9
$PUCSORTHOVIEW
 70
     0
  9
$PUCSORGTOP
 10
0.0
 20
0.0
 30
0.0
  9
$PUCSORGBOTTOM
 10
0.0
 20
0.0
 30
0.0
  9
$PUCSORGLEFT
 10
0.0
 20
0.0
 30
0.0
  9
$PUCSORGRIGHT
 10
0.0
 20
0.0
 30
0.0
  9
$PUCSORGFRONT
 10
0.0
 20
0.0
 30
0.0
  9
$PUCSORGBACK
 10
0.0
 20
0.0
 30
0.0
  9
$USERI1
 70
     0
  9
$USERI2
 70
     0
  9
$USERI3
 70
     0
  9
$USERI4
 70
     0
  9
$USERI5
 70
     0
  9
$USERR1
 40
0.0
  9
$USERR2
 40
0.0
  9
$USERR3
 40
0.0
  9
$USERR4
 40
0.0
  9
$USERR5
 40
0.0
  9
$WORLDVIEW
 70
     1
  9
$SHADEDGE
 70
     3
  9
$SHADEDIF
 70
    70
  9
$TILEMODE
 70
     1
  9
$MAXACTVP
 70
    64
  9
$PINSBASE
 10
0.0
 20
0.0
 30
0.0
  9
$PLIMCHECK
 70
     0
  9
$PEXTMIN
 10
1.0000000000E+20
 20
1.0000000000E+20
 30
1.0000000000E+20
  9
$PEXTMAX
 10
-1.0000000000E+20
 20
-1.0000000000E+20
 30
-1.0000000000E+20
  9
$PLIMMIN
 10
0.0
 20
0.0
  9
$PLIMMAX
 10
12.0
 20
9.0
  9
$UNITMODE
 70
     0
  9
$VISRETAIN
 70
     1
  9
$PLINEGEN
 70
     0
  9
$PSLTSCALE
 70
     1
  9
$TREEDEPTH
 70
  3020
  9
$CMLSTYLE
  2
Standard
  9
$CMLJUST
 70
     0
  9
$CMLSCALE
 40
1.0
  9
$PROXYGRAPHICS
 70
     1
  9
$MEASUREMENT
 70
     0
  9
$CELWEIGHT
370
    -1
  9
$ENDCAPS
280
     0
  9
$JOINSTYLE
280
     0
  9
$LWDISPLAY
290
     1
  9
$INSUNITS
 70
     1
  9
$HYPERLINKBASE
  1

  9
$STYLESHEET
  1

  9
$XEDIT
290
     1
  9
$CEPSNTYPE
380
     0
  9
$PSTYLEMODE
290
     1
  9
$FINGERPRINTGUID
  2
{B96BF851-CD17-40A2-B2CC-36A7E2F22B1F}
  9
$VERSIONGUID
  2
{FAEB1C32-E019-11D5-929B-00C0DF256EC4}
  9
$EXTNAMES
290
     1
  9
$PSVPSCALE
 40
0.0
  9
$OLESTARTUP
290
     0
  0
ENDSEC
  0
SECTION
  2
CLASSES
  0
CLASS
  1
ACDBDICTIONARYWDFLT
  2
AcDbDictionaryWithDefault
  3
ObjectDBX Classes
 90
        0
280
     0
281
     0
  0
CLASS
  1
VISUALSTYLE
  2
AcDbVisualStyle
  3
ObjectDBX Classes
 90
     4095
280
     0
281
     0
  0
CLASS
  1
MATERIAL
  2
AcDbMaterial
  3
ObjectDBX Classes
 90
     1153
280
     0
281
     0
  0
CLASS
  1
SCALE
  2
AcDbScale
  3
ObjectDBX Classes
 90
     1153
280
     0
281
     0
  0
CLASS
  1
DICTIONARYVAR
  2
AcDbDictionaryVar
  3
ObjectDBX Classes
 90
        0
280
     0
281
     0
  0
CLASS
  1
ACDBPLACEHOLDER
  2
AcDbPlaceHolder
  3
ObjectDBX Classes
 90
        0
280
     0
281
     0
  0
CLASS
  1
LAYOUT
  2
AcDbLayout
  3
ObjectDBX Classes
 90
        0
280
     0
281
     0
  0
ENDSEC
  0
SECTION
  2
TABLES
  0
TABLE
  2
VPORT
  5
8
330
0
100
AcDbSymbolTable
 70
     1
  0
VPORT
  5
29
330
8
100
AcDbSymbolTableRecord
100
AcDbViewportTableRecord
  2
*Active
 70
     0
 10
0.0
 20
0.0
 11
1.0
 21
1.0
 12
35.0
 22
21.0
 13
0.0
 23
0.0
 14
0.5
 24
0.5
 15
0.5
 25
0.5
 16
0.0
 26
0.0
 36
1.0
 17
0.0
 27
0.0
 37
0.0
 40
42.0
 41
1.6666666667
 42
50.0
 43
0.0
 44
0.0
 50
0.0
 51
0.0
 71
     0
 72
  2000
 73
     1
 74
     3
 75
     0
 76
     0
 77
     0
 78
     0
281
     0
 65
     1
110
0.0
120
0.0
130
0.0
111
1.0
121
0.0
131
0.0
112
0.0
122
1.0
132
0.0
 79
     0
146
0.0
  0
ENDTAB
  0
TABLE
  2
LTYPE
  5
5
330
0
100
AcDbSymbolTable
 70
     6
  0
LTYPE
  5
14
330
5
100
AcDbSymbolTableRecord
100
AcDbLinetypeTableRecord
  2
ByBlock
 70
     0
  3

 72
    65
 73
     0
 40
0.0
  0
LTYPE
  5
15
330
5
100
AcDbSymbolTableRecord
100
AcDbLinetypeTableRecord
  2
ByLayer
 70
     0
  3

 72
    65
 73
     0
 40
0.0
  0
LTYPE
  5
16
330
5
100
AcDbSymbolTableRecord
100
AcDbLinetypeTableRecord
  2
Continuous
 70
     0
  3
Solid line
 72
    65
 73
     0
 40
0.0
  0
LTYPE
  5
3F
330
5
100
AcDbSymbolTableRecord
100
AcDbLinetypeTableRecord
  2
HIDDEN
 70
     0
  3
Hidden __ __ __ __ __ __ __ __ __ __ __ __ __ __
 72
    65
 73
     2
 40
0.075
 49
0.05
 74
     0
 49
-0.025
 74
     0
  0
LTYPE
  5
40
330
5
100
AcDbSymbolTableRecord
100
AcDbLinetypeTableRecord
  2
PHANTOM
 70
     0
  3
Phantom ______  __  __  ______  __  __  ______
 72
    65
 73
     6
 40
0.5
 49
0.25
 74
     0
 49
-0.05
 74
     0
 49
0.05
 74
     0
 49
-0.05
 74
     0
 49
0.05
 74
     0
 49
-0.05
 74
     0
  0
LTYPE
  5
41
330
5
100
AcDbSymbolTableRecord
100
AcDbLinetypeTableRecord
  2
CENTER
 70
     0
  3
Center ____ _ ____ _ ____ _ ____ _ ____ _ ____
 72
    65
 73
     4
 40
0.4
 49
0.25
 74
     0
 49
-0.05
 74
     0
 49
0.05
 74
     0
 49
-0.05
 74
     0
  0
LTYPE
  5
42
330
5
100
AcDbSymbolTableRecord
100
AcDbLinetypeTableRecord
  2
CENTERX2
 70
     0
  3
Center (2x) ________  __  ________  __  _____
 72
    65
 73
     4
 40
0.8
 49
0.5
 74
     0
 49
-0.1
 74
     0
 49
0.1
 74
     0
 49
-0.1
 74
     0
  0
LTYPE
  5
43
330
5
100
AcDbSymbolTableRecord
100
AcDbLinetypeTableRecord
  2
DOT2
 70
     0
  3
Dot (.5x) ........................................
 72
    65
 73
     2
 40
0.025
 49
0.0
 74
     0
 49
-0.025
 74
     0
  0
ENDTAB
  0
TABLE
  2
LAYER
  5
2
330
0
100
AcDbSymbolTable
 70
     2
  0
LAYER
  5
10
330
2
100
AcDbSymbolTableRecord
100
AcDbLayerTableRecord
  2
0
 70
     0
 62
     7
  6
Continuous
370
    -3
390
F
  0
LAYER
  5
44
330
2
100
AcDbSymbolTableRecord
100
AcDbLayerTableRecord
  2
FORMAT
 70
     0
 62
     7
  6
Continuous
370
    -3
390
F
  0
ENDTAB
  0
TABLE
  2
STYLE
  5
3
330
0
100
AcDbSymbolTable
 70
     3
  0
STYLE
  5
11
330
3
100
AcDbSymbolTableRecord
100
AcDbTextStyleTableRecord
  2
Standard
 70
     0
 40
0.0
 41
1.0
 50
0.0
 71
     0
 42
0.2
  3
txt
  4

  0
STYLE
  5
4B
330
3
100
AcDbSymbolTableRecord
100
AcDbTextStyleTableRecord
  2
SLDTEXTSTYLE0
 70
     0
 40
0.0
 41
0.96
 50
0.0
 71
     0
 42
0.2
  3
TXT
  4

  0
STYLE
  5
70
330
3
100
AcDbSymbolTableRecord
100
AcDbTextStyleTableRecord
  2
SLDTEXTSTYLE1
 70
     0
 40
0.0
 41
0.8833333333
 50
0.0
 71
     0
 42
0.2
  3
TXT
  4

  0
ENDTAB
  0
TABLE
  2
VIEW
  5
6
330
0
100
AcDbSymbolTable
 70
     0
  0
ENDTAB
  0
TABLE
  2
UCS
  5
7
330
0
100
AcDbSymbolTable
 70
     0
  0
ENDTAB
  0
TABLE
  2
APPID
  5
9
330
0
100
AcDbSymbolTable
 70
     1
  0
APPID
  5
12
330
9
100
AcDbSymbolTableRecord
100
AcDbRegAppTableRecord
  2
ACAD
 70
     0
  0
ENDTAB
  0
TABLE
  2
DIMSTYLE
  5
A
330
0
100
AcDbSymbolTable
 70
     1
100
AcDbDimStyleTable
  0
DIMSTYLE
105
27
330
A
100
AcDbSymbolTableRecord
100
AcDbDimStyleTableRecord
  2
Standard
 70
     0
340
11
  0
ENDTAB
  0
TABLE
  2
BLOCK_RECORD
  5
1
330
0
100
AcDbSymbolTable
 70
     3
  0
BLOCK_RECORD
  5
1F
330
1
100
AcDbSymbolTableRecord
100
AcDbBlockTableRecord
  2
*Model_Space
340
22
  0
BLOCK_RECORD
  5
1B
330
1
100
AcDbSymbolTableRecord
100
AcDbBlockTableRecord
  2
*Paper_Space
340
1E
  0
BLOCK_RECORD
  5
23
330
1
100
AcDbSymbolTableRecord
100
AcDbBlockTableRecord
  2
*Paper_Space0
340
26
  0
BLOCK_RECORD
  5
45
330
1
100
AcDbSymbolTableRecord
100
AcDbBlockTableRecord
  2
SW_NOTE_0
340
0
102
{BLKREFS
331
73
102
}
  0
BLOCK_RECORD
  5
48
330
1
100
AcDbSymbolTableRecord
100
AcDbBlockTableRecord
  2
SW_NOTE_0_1
340
0
102
{BLKREFS
331
72
102
}
  0
ENDTAB
  0
ENDSEC
  0
SECTION
  2
BLOCKS
  0
BLOCK
  5
20
330
1F
100
AcDbEntity
  8
0
100
AcDbBlockBegin
  2
*Model_Space
 70
     0
 10
0.0
 20
0.0
 30
0.0
  3
*Model_Space
  1

  0
ENDBLK
  5
21
330
1F
100
AcDbEntity
  8
0
100
AcDbBlockEnd
  0
BLOCK
  5
1C
330
1B
100
AcDbEntity
 67
     1
  8
0
100
AcDbBlockBegin
  2
*Paper_Space
 70
     0
 10
0.0
 20
0.0
 30
0.0
  3
*Paper_Space
  1

  0
ENDBLK
  5
1D
330
1B
100
AcDbEntity
 67
     1
  8
0
100
AcDbBlockEnd
  0
BLOCK
  5
24
330
23
100
AcDbEntity
  8
0
100
AcDbBlockBegin
  2
*Paper_Space0
 70
     0
 10
0.0
 20
0.0
 30
0.0
  3
*Paper_Space0
  1

  0
ENDBLK
  5
25
330
23
100
AcDbEntity
  8
0
100
AcDbBlockEnd
  0
BLOCK
  5
46
330
45
100
AcDbEntity
  8
0
100
AcDbBlockBegin
  2
SW_NOTE_0
 70
     0
 10
0.0
 20
0.0
 30
0.0
  3
SW_NOTE_0
  1

  0
INSERT
  5
72
330
45
100
AcDbEntity
  8
FORMAT
 62
     7
100
AcDbBlockReference
  2
SW_NOTE_0_1
 10
6.1082780987
 20
1.6757404968
 30
0.0
  0
ENDBLK
  5
47
330
45
100
AcDbEntity
  8
0
100
AcDbBlockEnd
  0
BLOCK
  5
49
330
48
100
AcDbEntity
  8
0
100
AcDbBlockBegin
  2
SW_NOTE_0_1
 70
     0
 10
0.0
 20
0.0
 30
0.0
  3
SW_NOTE_0_1
  1

  0
MTEXT
  5
6E
330
48
100
AcDbEntity
  8
FORMAT
 62
     0
100
AcDbMText
 10
0.0
 20
1.7456125643
 30
0.0
 40
1.3541666667
 41
0.0
 71
     1
 72
     1
  1
Titus
  7
SLDTEXTSTYLE0
 73
     1
 44
1.0
  0
MTEXT
  5
6F
330
48
100
AcDbEntity
  8
FORMAT
 62
     0
100
AcDbMText
 10
0.0
 20
-1.8654984665
 30
0.0
 40
1.3541666667
 41
0.0
 71
     1
 72
     1
  1
MDV
  7
SLDTEXTSTYLE0
 73
     1
 44
1.0
  0
MTEXT
  5
71
330
48
100
AcDbEntity
  8
FORMAT
 62
     0
100
AcDbMText
 10
0.0
 20
-5.4766094973
 30
0.0
 40
1.3541666667
 41
0.0
 71
     1
 72
     1
  1
Size 9
  7
SLDTEXTSTYLE1
 73
     1
 44
1.0
  0
ENDBLK
  5
4A
330
48
100
AcDbEntity
  8
0
100
AcDbBlockEnd
  0
ENDSEC
  0
SECTION
  2
ENTITIES
  0
INSERT
  5
73
330
1F
100
AcDbEntity
  8
FORMAT
100
AcDbBlockReference
  2
SW_NOTE_0
 10
18.8449451768
 20
21.2381043442
 30
0.0
  0
ARC
  5
74
330
1F
100
AcDbEntity
  8
0
  6
Continuous
 62
     7
370
    30
100
AcDbCircle
 10
5.979005256
 20
32.6064169109
 30
0.0
 40
0.1249999999999977
100
AcDbArc
 50
115.0873830763
 51
180.0
  0
LINE
  5
75
330
1F
100
AcDbEntity
  8
0
  6
Continuous
 62
     7
370
    30
100
AcDbLine
 10
5.854005256
 20
32.6064169109
 30
0.0
 11
2.698005256
 21
32.6064169109
 31
0.0
  0
ARC
  5
76
330
1F
100
AcDbEntity
  8
0
  6
Continuous
 62
     7
370
    30
100
AcDbCircle
 10
5.979005256
 20
9.8574169109
 30
0.0
 40
0.1249999999999973
100
AcDbArc
 50
180.0
 51
244.9126169237
  0
LINE
  5
77
330
1F
100
AcDbEntity
  8
0
  6
Continuous
 62
     7
370
    30
100
AcDbLine
 10
2.698005256
 20
9.8574169109
 30
0.0
 11
5.854005256
 21
9.8574169109
 31
0.0
  0
LINE
  5
78
330
1F
100
AcDbEntity
  8
0
  6
Continuous
 62
     7
370
    30
100
AcDbLine
 10
5.388005256
 20
27.0862493795
 30
0.0
 11
5.388005256
 21
27.5006131677
 31
0.0
  0
LINE
  5
79
330
1F
100
AcDbEntity
  8
0
  6
Continuous
 62
     7
370
    30
100
AcDbLine
 10
5.388005256
 20
28.2505218033
 30
0.0
 11
5.388005256
 21
27.8363129681
 31
0.0
  0
LINE
  5
7A
330
1F
100
AcDbEntity
  8
0
  6
Continuous
 62
     7
370
    30
100
AcDbLine
 10
5.368005256
 20
27.4833013808
 30
0.0
 11
5.388005256
 21
27.4833013808
 31
0.0
  0
LINE
  5
7B
330
1F
100
AcDbEntity
  8
0
  6
Continuous
 62
     7
370
    30
100
AcDbLine
 10
5.1189622959
 20
27.3658233945
 30
0.0
 11
5.259742718
 21
27.5003531617
 31
0.0
  0
LINE
  5
7C
330
1F
100
AcDbEntity
  8
0
  6
Continuous
 62
     7
370
    30
100
AcDbLine
 10
5.283005256
 20
27.08166012
 30
0.0
 11
5.283005256
 21
27.5071627007
 31
0.0
  0
LINE
  5
7D
330
1F
100
AcDbEntity
  8
0
  6
Continuous
 62
     7
370
    30
100
AcDbLine
 10
5.283005256
 20
28.2572566527
 30
0.0
 11
5.283005256
 21
27.8316644777
 31
0.0
  0
LWPOLYLINE
  5
7E
330
1F
100
AcDbEntity
  8
0
  6
Continuous
 62
     7
370
    30
100
AcDbPolyline
 90
        3
 70
   128
 43
0.0
 10
5.303005256
 20
31.1970904576
 10
5.2607012812
 20
31.1821596099
 10
5.2446544877
 20
31.1727819582
  0
LWPOLYLINE
  5
7F
330
1F
100
AcDbEntity
  8
0
  6
Continuous
 62
     7
370
    30
100
AcDbPolyline
 90
        3
 70
   128
 43
0.0
 10
5.2441472027
 20
18.2984393476
 10
5.2607012812
 20
18.3081596099
 10
5.303005256
 20
18.3230904576
  0
LWPOLYLINE
  5
80
330
1F
100
AcDbEntity
  8
0
  6
Continuous
 62
     7
370
    30
100
AcDbPolyline
 90
       16
 70
   128
 43
0.0
 10
5.294218918
 20
11.3668463299
 10
5.2788110822
 20
11.3588688093
 10
5.2652627852
 20
11.3445311875
 10
5.260505256
 20
11.3276188093
 10
5.2652627852
 20
11.3107064312
 10
5.2788110822
 20
11.2963688093
 10
5.2990875415
 20
11.2867887167
 10
5.323005256
 20
11.2834246355
 10
5.3469229705
 20
11.2867887167
 10
5.3671994298
 20
11.2963688093
 10
5.3807477268
 20
11.3107064312
 10
5.385505256
 20
11.3276188093
 10
5.3807477268
 20
11.3445311875
 10
5.3671994298
 20
11.3588688093
 10
5.3469229705
 20
11.368448902
 10
5.344187402
 20
11.3691974498
  0
LINE
  5
81
330
1F
100
AcDbEntity
  8
0
  6
Continuous
 62
     7
370
    30
100
AcDbLine
 10
5.343005256
 20
18.3193778693
 30
0.0
 11
5.368005256
 21
18.3193778693
 31
0.0
  0
LINE
  5
82
330
1F
100
AcDbEntity
  8
0
  6
Continuous
 62
     7
370
    30
100
AcDbLine
 10
5.303005256
 20
18.3193778693
 30
0.0
 11
5.2888444582
 21
18.3193778693
 31
0.0
  0
ARC
  5
83
330
1F
100
AcDbEntity
  8
0
  6
Continuous
 62
     7
370
    30
100
AcDbCircle
 10
5.3170441292
 20
18.2057688359
 30
0.0
 40
0.0590794637442686
100
AcDbArc
 50
84.2089924786
 51
151.1314787587
  0
ARC
  5
84
330
1F
100
AcDbEntity
  8
0
  6
Continuous
 62
     7
370
    30
100
AcDbCircle
 10
5.3289613913
 20
18.2057516702
 30
0.0
 40
0.0590960385702968
100
AcDbArc
 50
28.9192155593
 51
95.7845135082
  0
LINE
  5
85
330
1F
100
AcDbEntity
  8
0
  6
Continuous
 62
     7
370
    30
100
AcDbLine
 10
5.303005256
 20
18.3193778693
 30
0.0
 11
5.303005256
 21
18.3263280832
 31
0.0
  0
LINE
  5
86
330
1F
100
AcDbEntity
  8
0
  6
Continuous
 62
     7
370
    30
100
AcDbLine
 10
5.343005256
 20
18.3193778693
 30
0.0
 11
5.343005256
 21
18.3255090741
 31
0.0
  0
LWPOLYLINE
  5
87
330
1F
100
AcDbEntity
  8
0
  6
Continuous
 62
     7
370
    30
100
AcDbPolyline
 90
        8
 70
   128
 43
0.0
 10
5.323005256
 20
24.1574246355
 10
5.2990875415
 20
24.1607887167
 10
5.2788110822
 20
24.1703688093
 10
5.2652627852
 20
24.1847064312
 10
5.260505256
 20
24.2016188093
 10
5.2652627852
 20
24.2185311875
 10
5.2788110822
 20
24.2328688093
 10
5.2972891337
 20
24.2418986495
  0
LWPOLYLINE
  5
88
330
1F
100
AcDbEntity
  8
0
  6
Continuous
 62
     7
370
    30
100
AcDbPolyline
 90
        8
 70
   128
 43
0.0
 10
5.3511772686
 20
24.2410686997
 10
5.3671994298
 20
24.2328688093
 10
5.3807477268
 20
24.2185311875
 10
5.385505256
 20
24.2016188093
 10
5.3807477268
 20
24.1847064312
 10
5.3671994298
 20
24.1703688093
 10
5.3469229705
 20
24.1607887167
 10
5.323005256
 20
24.1574246355
  0
LINE
  5
89
330
1F
100
AcDbEntity
  8
0
  6
Continuous
 62
     7
370
    30
100
AcDbLine
 10
5.303005256
 20
31.1933778693
 30
0.0
 11
5.2888444582
 21
31.1933778693
 31
0.0
  0
LINE
  5
8A
330
1F
100
AcDbEntity
  8
0
  6
Continuous
 62
     7
370
    30
100
AcDbLine
 10
5.343005256
 20
31.1933778693
 30
0.0
 11
5.368005256
 21
31.1933778693
 31
0.0
  0
ARC
  5
8B
330
1F
100
AcDbEntity
  8
0
  6
Continuous
 62
     7
370
    30
100
AcDbCircle
 10
5.3230443638
 20
31.0725176182
 30
0.0
 40
0.0679040572626015
100
AcDbArc
 50
32.0887545844
 51
148.3216939228
  0
LINE
  5
8C
330
1F
100
AcDbEntity
  8
0
  6
Continuous
 62
     7
370
    30
100
AcDbLine
 10
5.303005256
 20
31.1933778693
 30
0.0
 11
5.303005256
 21
31.2003280832
 31
0.0
  0
LINE
  5
8D
330
1F
100
AcDbEntity
  8
0
  6
Continuous
 62
     7
370
    30
100
AcDbLine
 10
5.343005256
 20
31.1933778693
 30
0.0
 11
5.343005256
 21
31.1995090741
 31
0.0
  0
LINE
  5
8E
330
1F
100
AcDbEntity
  8
0
  6
Continuous
 62
     7
370
    30
100
AcDbLine
 10
5.368005256
 20
27.5077483466
 30
0.0
 11
5.368005256
 21
27.0826232099
 31
0.0
  0
LINE
  5
8F
330
1F
100
AcDbEntity
  8
0
  6
Continuous
 62
     7
370
    30
100
AcDbLine
 10
5.368005256
 20
28.2578919742
 30
0.0
 11
5.368005256
 21
27.8326672334
 31
0.0
  0
LINE
  5
90
330
1F
100
AcDbEntity
  8
0
  6
Continuous
 62
     7
370
    30
100
AcDbLine
 10
59.245005256
 20
25.8599169109
 30
0.0
 11
59.245005256
 21
25.8989169109
 31
0.0
  0
LINE
  5
91
330
1F
100
AcDbEntity
  8
0
  6
Continuous
 62
     7
370
    30
100
AcDbLine
 10
59.245005256
 20
25.8989169109
 30
0.0
 11
59.674005256
 21
25.8989169109
 31
0.0
  0
LINE
  5
92
330
1F
100
AcDbEntity
  8
0
  6
Continuous
 62
     7
370
    30
100
AcDbLine
 10
59.674005256
 20
25.8989169109
 30
0.0
 11
59.674005256
 21
25.8599169109
 31
0.0
  0
LINE
  5
93
330
1F
100
AcDbEntity
  8
0
  6
Continuous
 62
     7
370
    30
100
AcDbLine
 10
59.674005256
 20
25.8599169109
 30
0.0
 11
59.245005256
 21
25.8599169109
 31
0.0
  0
LINE
  5
94
330
1F
100
AcDbEntity
  8
0
  6
Continuous
 62
     7
370
    30
100
AcDbLine
 10
59.677005256
 20
25.8599169109
 30
0.0
 11
59.677005256
 21
25.8989169109
 31
0.0
  0
LINE
  5
95
330
1F
100
AcDbEntity
  8
0
  6
Continuous
 62
     7
370
    30
100
AcDbLine
 10
59.677005256
 20
25.8989169109
 30
0.0
 11
59.674005256
 21
25.8989169109
 31
0.0
  0
LINE
  5
96
330
1F
100
AcDbEntity
  8
0
  6
Continuous
 62
     7
370
    30
100
AcDbLine
 10
59.677005256
 20
25.8599169109
 30
0.0
 11
59.674005256
 21
25.8599169109
 31
0.0
  0
LINE
  5
97
330
1F
100
AcDbEntity
  8
0
  6
Continuous
 62
     7
370
    30
100
AcDbLine
 10
55.704005256
 20
25.7339169109
 30
0.0
 11
55.704005256
 21
25.7319169109
 31
0.0
  0
LINE
  5
98
330
1F
100
AcDbEntity
  8
0
  6
Continuous
 62
     7
370
    30
100
AcDbLine
 10
55.704005256
 20
25.7339169109
 30
0.0
 11
59.677005256
 21
25.7339169109
 31
0.0
  0
CIRCLE
  5
99
330
1F
100
AcDbEntity
  8
0
  6
Continuous
 62
     7
370
    30
100
AcDbCircle
 10
58.495005256
 20
25.3879169109
 30
0.0
 40
0.0805000000000007
  0
CIRCLE
  5
9A
330
1F
100
AcDbEntity
  8
0
  6
Continuous
 62
     7
370
    30
100
AcDbCircle
 10
56.120005256
 20
25.3879169109
 30
0.0
 40
0.0805000000000042
  0
LINE
  5
9B
330
1F
100
AcDbEntity
  8
0
  6
Continuous
 62
     7
370
    30
100
AcDbLine
 10
59.677005256
 20
25.6909169109
 30
0.0
 11
59.677005256
 21
25.7339169109
 31
0.0
  0
LINE
  5
9C
330
1F
100
AcDbEntity
  8
0
  6
Continuous
 62
     7
370
    30
100
AcDbLine
 10
59.677005256
 20
25.8019169109
 30
0.0
 11
59.677005256
 21
25.7629169109
 31
0.0
  0
ARC
  5
9D
330
1F
100
AcDbEntity
  8
0
  6
Continuous
 62
     7
370
    30
100
AcDbCircle
 10
59.677005256
 20
25.8309169109
 30
0.0
 40
0.0289999999999999
100
AcDbArc
 50
270.0
 51
90.0
  0
ARC
  5
9E
330
1F
100
AcDbEntity
  8
0
  6
Continuous
 62
     7
370
    30
100
AcDbCircle
 10
59.677005256
 20
25.8309169109
 30
0.0
 40
0.0680000000000014
100
AcDbArc
 50
270.0
 51
90.0
  0
LINE
  5
9F
330
1F
100
AcDbEntity
  8
0
  6
Continuous
 62
     7
370
    30
100
AcDbLine
 10
55.704005256
 20
25.7339169109
 30
0.0
 11
55.704005256
 21
25.7629169109
 31
0.0
  0
LINE
  5
A0
330
1F
100
AcDbEntity
  8
0
  6
Continuous
 62
     7
370
    30
100
AcDbLine
 10
55.704005256
 20
25.8019169109
 30
0.0
 11
59.677005256
 21
25.8019169109
 31
0.0
  0
LINE
  5
A1
330
1F
100
AcDbEntity
  8
0
  6
Continuous
 62
     7
370
    30
100
AcDbLine
 10
59.677005256
 20
25.7629169109
 30
0.0
 11
59.677005256
 21
25.7339169109
 31
0.0
  0
LINE
  5
A2
330
1F
100
AcDbEntity
  8
0
  6
Continuous
 62
     7
370
    30
100
AcDbLine
 10
55.704005256
 20
25.8019169109
 30
0.0
 11
55.704005256
 21
25.7629169109
 31
0.0
  0
ARC
  5
A3
330
1F
100
AcDbEntity
  8
0
  6
Continuous
 62
     7
370
    30
100
AcDbCircle
 10
55.704005256
 20
25.8309169109
 30
0.0
 40
0.0290000000000011
100
AcDbArc
 50
195.0901851796
 51
270.0
  0
ARC
  5
A4
330
1F
100
AcDbEntity
  8
0
  6
Continuous
 62
     7
370
    30
100
AcDbCircle
 10
55.704005256
 20
25.8309169109
 30
0.0
 40
0.0680000000000004
100
AcDbArc
 50
244.7562175912
 51
270.0
  0
LINE
  5
A5
330
1F
100
AcDbEntity
  8
0
  6
Continuous
 62
     7
370
    30
100
AcDbLine
 10
55.704005256
 20
16.7319169109
 30
0.0
 11
55.704005256
 21
16.7299169109
 31
0.0
  0
LINE
  5
A6
330
1F
100
AcDbEntity
  8
0
  6
Continuous
 62
     7
370
    30
100
AcDbLine
 10
59.677005256
 20
16.7299169109
 30
0.0
 11
55.704005256
 21
16.7299169109
 31
0.0
  0
CIRCLE
  5
A7
330
1F
100
AcDbEntity
  8
0
  6
Continuous
 62
     7
370
    30
100
AcDbCircle
 10
58.495005256
 20
17.0759169109
 30
0.0
 40
0.0805000000000007
  0
CIRCLE
  5
A8
330
1F
100
AcDbEntity
  8
0
  6
Continuous
 62
     7
370
    30
100
AcDbCircle
 10
56.120005256
 20
17.0759169109
 30
0.0
 40
0.0805000000000007
  0
LINE
  5
A9
330
1F
100
AcDbEntity
  8
0
  6
Continuous
 62
     7
370
    30
100
AcDbLine
 10
59.677005256
 20
16.7299169109
 30
0.0
 11
59.677005256
 21
16.7729169109
 31
0.0
  0
LINE
  5
AA
330
1F
100
AcDbEntity
  8
0
  6
Continuous
 62
     7
370
    30
100
AcDbLine
 10
59.677005256
 20
16.6039169109
 30
0.0
 11
59.677005256
 21
16.5649169109
 31
0.0
  0
LINE
  5
AB
330
1F
100
AcDbEntity
  8
0
  6
Continuous
 62
     7
370
    30
100
AcDbLine
 10
59.674005256
 20
16.5649169109
 30
0.0
 11
59.677005256
 21
16.5649169109
 31
0.0
  0
LINE
  5
AC
330
1F
100
AcDbEntity
  8
0
  6
Continuous
 62
     7
370
    30
100
AcDbLine
 10
59.674005256
 20
16.6039169109
 30
0.0
 11
59.674005256
 21
16.5649169109
 31
0.0
  0
LINE
  5
AD
330
1F
100
AcDbEntity
  8
0
  6
Continuous
 62
     7
370
    30
100
AcDbLine
 10
59.674005256
 20
16.6039169109
 30
0.0
 11
59.677005256
 21
16.6039169109
 31
0.0
  0
LINE
  5
AE
330
1F
100
AcDbEntity
  8
0
  6
Continuous
 62
     7
370
    30
100
AcDbLine
 10
55.704005256
 20
16.7009169109
 30
0.0
 11
55.704005256
 21
16.7299169109
 31
0.0
  0
LINE
  5
AF
330
1F
100
AcDbEntity
  8
0
  6
Continuous
 62
     7
370
    30
100
AcDbLine
 10
59.677005256
 20
16.7299169109
 30
0.0
 11
59.677005256
 21
16.7009169109
 31
0.0
  0
LINE
  5
B0
330
1F
100
AcDbEntity
  8
0
  6
Continuous
 62
     7
370
    30
100
AcDbLine
 10
59.677005256
 20
16.6619169109
 30
0.0
 11
55.704005256
 21
16.6619169109
 31
0.0
  0
LINE
  5
B1
330
1F
100
AcDbEntity
  8
0
  6
Continuous
 62
     7
370
    30
100
AcDbLine
 10
59.245005256
 20
16.5649169109
 30
0.0
 11
59.245005256
 21
16.6039169109
 31
0.0
  0
LINE
  5
B2
330
1F
100
AcDbEntity
  8
0
  6
Continuous
 62
     7
370
    30
100
AcDbLine
 10
59.245005256
 20
16.6039169109
 30
0.0
 11
59.674005256
 21
16.6039169109
 31
0.0
  0
LINE
  5
B3
330
1F
100
AcDbEntity
  8
0
  6
Continuous
 62
     7
370
    30
100
AcDbLine
 10
59.674005256
 20
16.5649169109
 30
0.0
 11
59.245005256
 21
16.5649169109
 31
0.0
  0
ARC
  5
B4
330
1F
100
AcDbEntity
  8
0
  6
Continuous
 62
     7
370
    30
100
AcDbCircle
 10
59.677005256
 20
16.6329169109
 30
0.0
 40
0.0680000000000014
100
AcDbArc
 50
270.0
 51
90.0
  0
ARC
  5
B5
330
1F
100
AcDbEntity
  8
0
  6
Continuous
 62
     7
370
    30
100
AcDbCircle
 10
59.677005256
 20
16.6329169109
 30
0.0
 40
0.0289999999999999
100
AcDbArc
 50
270.0
 51
90.0
  0
LINE
  5
B6
330
1F
100
AcDbEntity
  8
0
  6
Continuous
 62
     7
370
    30
100
AcDbLine
 10
59.677005256
 20
16.6619169109
 30
0.0
 11
59.677005256
 21
16.7009169109
 31
0.0
  0
ARC
  5
B7
330
1F
100
AcDbEntity
  8
0
  6
Continuous
 62
     7
370
    30
100
AcDbCircle
 10
55.704005256
 20
16.6329169109
 30
0.0
 40
0.0679999999999995
100
AcDbArc
 50
90.0
 51
115.2437824088
  0
LINE
  5
B8
330
1F
100
AcDbEntity
  8
0
  6
Continuous
 62
     7
370
    30
100
AcDbLine
 10
55.704005256
 20
16.6619169109
 30
0.0
 11
55.704005256
 21
16.7009169109
 31
0.0
  0
ARC
  5
B9
330
1F
100
AcDbEntity
  8
0
  6
Continuous
 62
     7
370
    30
100
AcDbCircle
 10
55.704005256
 20
16.6329169109
 30
0.0
 40
0.0289999999999999
100
AcDbArc
 50
90.0
 51
164.9098148203
  0
ARC
  5
BA
330
1F
100
AcDbEntity
  8
0
  6
Continuous
 62
     7
370
    30
100
AcDbCircle
 10
55.261005256
 20
21.2319169109
 30
0.0
 40
0.047000000000002
100
AcDbArc
 50
180.0
 51
283.0269950849
  0
ARC
  5
BB
330
1F
100
AcDbEntity
  8
0
  6
Continuous
 62
     7
370
    30
100
AcDbCircle
 10
55.261005256
 20
21.2319169109
 30
0.0
 40
0.046999999999997
100
AcDbArc
 50
31.7332750196
 51
180.0
  0
ARC
  5
BC
330
1F
100
AcDbEntity
  8
0
  6
Continuous
 62
     7
370
    30
100
AcDbCircle
 10
55.261005256
 20
33.2319169109
 30
0.0
 40
0.0470000000000058
100
AcDbArc
 50
180.0
 51
283.0269728766
  0
ARC
  5
BD
330
1F
100
AcDbEntity
  8
0
  6
Continuous
 62
     7
370
    30
100
AcDbCircle
 10
55.261005256
 20
33.2319169109
 30
0.0
 40
0.0469999999999979
100
AcDbArc
 50
31.7332974535
 51
180.0
  0
ARC
  5
BE
330
1F
100
AcDbEntity
  8
0
  6
Continuous
 62
     7
370
    30
100
AcDbCircle
 10
55.261005256
 20
9.2319169109
 30
0.0
 40
0.0470000000000113
100
AcDbArc
 50
180.0
 51
283.027000707
  0
ARC
  5
BF
330
1F
100
AcDbEntity
  8
0
  6
Continuous
 62
     7
370
    30
100
AcDbCircle
 10
55.261005256
 20
9.2319169109
 30
0.0
 40
0.0470000000000113
100
AcDbArc
 50
31.7332694754
 51
180.0
  0
LWPOLYLINE
  5
C0
330
1F
100
AcDbEntity
  8
0
  6
Continuous
 62
     7
370
    30
100
AcDbPolyline
 90
        3
 70
   128
 43
0.0
 10
55.6075567284
 20
7.7450905901
 10
55.6157956239
 20
7.752126543
 10
55.622880971
 20
7.7604335257
  0
CIRCLE
  5
C1
330
1F
100
AcDbEntity
  8
0
  6
Continuous
 62
     7
370
    30
100
AcDbCircle
 10
6.386005256
 20
21.2319169109
 30
0.0
 40
0.0469999999999962
  0
CIRCLE
  5
C2
330
1F
100
AcDbEntity
  8
0
  6
Continuous
 62
     7
370
    30
100
AcDbCircle
 10
6.386005256
 20
9.2319169109
 30
0.0
 40
0.0470000000000006
  0
CIRCLE
  5
C3
330
1F
100
AcDbEntity
  8
0
  6
Continuous
 62
     7
370
    30
100
AcDbCircle
 10
6.386005256
 20
33.2319169109
 30
0.0
 40
0.0470000000000006
  0
LINE
  5
C4
330
1F
100
AcDbEntity
  8
0
  6
Continuous
 62
     7
370
    30
100
AcDbLine
 10
5.996005256
 20
34.7469169109
 30
0.0
 11
5.996005256
 21
7.7619169109
 31
0.0
  0
LINE
  5
C5
330
1F
100
AcDbEntity
  8
0
  6
Continuous
 62
     7
370
    30
100
AcDbLine
 10
55.606005256
 20
34.7469169109
 30
0.0
 11
5.996005256
 21
34.7469169109
 31
0.0
  0
LINE
  5
C6
330
1F
100
AcDbEntity
  8
0
  6
Continuous
 62
     7
370
    30
100
AcDbLine
 10
55.606005256
 20
7.7619169109
 30
0.0
 11
55.606005256
 21
34.7469169109
 31
0.0
  0
LINE
  5
C7
330
1F
100
AcDbEntity
  8
0
  6
Continuous
 62
     7
370
    30
100
AcDbLine
 10
5.996005256
 20
7.7619169109
 30
0.0
 11
55.606005256
 21
7.7619169109
 31
0.0
  0
CIRCLE
  5
C8
330
1F
100
AcDbEntity
  8
0
  6
Continuous
 62
     7
370
    30
100
AcDbCircle
 10
42.551005256
 20
8.2229169109
 30
0.0
 40
0.0940000000000012
  0
CIRCLE
  5
C9
330
1F
100
AcDbEntity
  8
0
  6
Continuous
 62
     7
370
    30
100
AcDbCircle
 10
19.051005256
 20
8.2229169109
 30
0.0
 40
0.094000000000003
  0
CIRCLE
  5
CA
330
1F
100
AcDbEntity
  8
0
  6
Continuous
 62
     7
370
    30
100
AcDbCircle
 10
54.551005256
 20
34.2859169109
 30
0.0
 40
0.0940000000000012
  0
CIRCLE
  5
CB
330
1F
100
AcDbEntity
  8
0
  6
Continuous
 62
     7
370
    30
100
AcDbCircle
 10
55.207005256
 20
21.2544169109
 30
0.0
 40
0.0940000000000012
  0
CIRCLE
  5
CC
330
1F
100
AcDbEntity
  8
0
  6
Continuous
 62
     7
370
    30
100
AcDbCircle
 10
55.207005256
 20
9.2544169109
 30
0.0
 40
0.0939999999999976
  0
CIRCLE
  5
CD
330
1F
100
AcDbEntity
  8
0
  6
Continuous
 62
     7
370
    30
100
AcDbCircle
 10
55.207005256
 20
33.2544169109
 30
0.0
 40
0.0939999999999941
  0
CIRCLE
  5
CE
330
1F
100
AcDbEntity
  8
0
  6
Continuous
 62
     7
370
    30
100
AcDbCircle
 10
6.395005256
 20
9.2544169109
 30
0.0
 40
0.0939999999999976
  0
CIRCLE
  5
CF
330
1F
100
AcDbEntity
  8
0
  6
Continuous
 62
     7
370
    30
100
AcDbCircle
 10
6.395005256
 20
21.2544169109
 30
0.0
 40
0.0940000000000012
  0
CIRCLE
  5
D0
330
1F
100
AcDbEntity
  8
0
  6
Continuous
 62
     7
370
    30
100
AcDbCircle
 10
30.801005256
 20
8.2229169109
 30
0.0
 40
0.0940000000000012
  0
CIRCLE
  5
D1
330
1F
100
AcDbEntity
  8
0
  6
Continuous
 62
     7
370
    30
100
AcDbCircle
 10
7.051005256
 20
34.2859169109
 30
0.0
 40
0.0940000000000012
  0
CIRCLE
  5
D2
330
1F
100
AcDbEntity
  8
0
  6
Continuous
 62
     7
370
    30
100
AcDbCircle
 10
7.051005256
 20
8.2229169109
 30
0.0
 40
0.0939999999999976
  0
CIRCLE
  5
D3
330
1F
100
AcDbEntity
  8
0
  6
Continuous
 62
     7
370
    30
100
AcDbCircle
 10
54.551005256
 20
8.2229169109
 30
0.0
 40
0.0940000000000012
  0
CIRCLE
  5
D4
330
1F
100
AcDbEntity
  8
0
  6
Continuous
 62
     7
370
    30
100
AcDbCircle
 10
42.551005256
 20
34.2859169109
 30
0.0
 40
0.0940000000000012
  0
CIRCLE
  5
D5
330
1F
100
AcDbEntity
  8
0
  6
Continuous
 62
     7
370
    30
100
AcDbCircle
 10
19.051005256
 20
34.2859169109
 30
0.0
 40
0.0940000000000012
  0
CIRCLE
  5
D6
330
1F
100
AcDbEntity
  8
0
  6
Continuous
 62
     7
370
    30
100
AcDbCircle
 10
30.801005256
 20
34.2859169109
 30
0.0
 40
0.0940000000000012
  0
CIRCLE
  5
D7
330
1F
100
AcDbEntity
  8
0
  6
Continuous
 62
     7
370
    30
100
AcDbCircle
 10
6.395005256
 20
33.2544169109
 30
0.0
 40
0.0939999999999941
  0
SPLINE
  5
D8
330
1F
100
AcDbEntity
  8
0
  6
Continuous
 62
     7
370
    30
100
AcDbSpline
210
0.0
220
0.0
230
1.0
 70
     8
 71
     3
 72
    11
 73
     7
 74
     0
 42
0.00000001
 43
0.00000001
 40
0.0
 40
0.0
 40
0.0
 40
0.0
 40
0.250000000000005
 40
0.4999999999999912
 40
0.7499999999999983
 40
1.0
 40
1.0
 40
1.0
 40
1.0
 10
5.996005256017902
 20
34.74691691087851
 30
0.0
 10
5.99582516015565
 20
34.75608950394495
 30
0.0
 10
5.995464968431159
 20
34.77443469007782
 30
0.0
 10
5.994924680844416
 20
34.7975728356746
 30
0.0
 10
5.994384393257672
 20
34.81376028059317
 30
0.0
 10
5.994024201533172
 20
34.8158647007834
 30
0.0
 10
5.99384410567092
 20
34.81691691087851
 30
0.0
  0
LINE
  5
D9
330
1F
100
AcDbEntity
  8
0
  6
Continuous
 62
     7
370
    30
100
AcDbLine
 10
5.9938441057
 20
34.8169169109
 30
0.0
 11
55.6081664064
 21
34.8169169109
 31
0.0
  0
SPLINE
  5
DA
330
1F
100
AcDbEntity
  8
0
  6
Continuous
 62
     7
370
    30
100
AcDbSpline
210
0.0
220
0.0
230
1.0
 70
     8
 71
     3
 72
    11
 73
     7
 74
     0
 42
0.00000001
 43
0.00000001
 40
0.0
 40
0.0
 40
0.0
 40
0.0
 40
0.2500000000000003
 40
0.5000000000000075
 40
0.7499999999999948
 40
1.0
 40
1.0
 40
1.0
 40
1.0
 10
55.60816640636489
 20
34.81691691087851
 30
0.0
 10
55.60798631050262
 20
34.81586470078339
 30
0.0
 10
55.60762611877814
 20
34.81376028059318
 30
0.0
 10
55.60708583119138
 20
34.7975728356746
 30
0.0
 10
55.60654554360465
 20
34.77443469007783
 30
0.0
 10
55.60618535188016
 20
34.75608950394495
 30
0.0
 10
55.6060052560179
 20
34.74691691087851
 30
0.0
  0
LINE
  5
DB
330
1F
100
AcDbEntity
  8
0
  6
Continuous
 62
     7
370
    30
100
AcDbLine
 10
5.9938441057
 20
34.8169169109
 30
0.0
 11
5.9938441057
 21
34.7769169109
 31
0.0
  0
LINE
  5
DC
330
1F
100
AcDbEntity
  8
0
  6
Continuous
 62
     7
370
    30
100
AcDbLine
 10
55.6081664064
 20
34.8169169109
 30
0.0
 11
55.6081664064
 21
34.7769169109
 31
0.0
  0
SPLINE
  5
DD
330
1F
100
AcDbEntity
  8
0
  6
Continuous
 62
     7
370
    30
100
AcDbSpline
210
0.0
220
0.0
230
1.0
 70
     8
 71
     3
 72
    11
 73
     7
 74
     0
 42
0.00000001
 43
0.00000001
 40
0.0
 40
0.0
 40
0.0
 40
0.0
 40
0.2499999999999992
 40
0.5000000000000078
 40
0.7499999999999934
 40
1.0
 40
1.0
 40
1.0
 40
1.0
 10
5.99384410567092
 20
7.691916910878512
 30
0.0
 10
5.994024201533172
 20
7.692969120973625
 30
0.0
 10
5.994384393257672
 20
7.69507354116385
 30
0.0
 10
5.994924680844416
 20
7.711260986082419
 30
0.0
 10
5.995464968431155
 20
7.734399131679197
 30
0.0
 10
5.995825160155655
 20
7.752744317812074
 30
0.0
 10
5.996005256017907
 20
7.76191691087851
 30
0.0
  0
LINE
  5
DE
330
1F
100
AcDbEntity
  8
0
  6
Continuous
 62
     7
370
    30
100
AcDbLine
 10
5.9938441057
 20
7.6919169109
 30
0.0
 11
5.9938441057
 21
7.7319169109
 31
0.0
  0
SPLINE
  5
DF
330
1F
100
AcDbEntity
  8
0
  6
Continuous
 62
     7
370
    30
100
AcDbSpline
210
0.0
220
0.0
230
1.0
 70
     8
 71
     3
 72
    11
 73
     7
 74
     0
 42
0.00000001
 43
0.00000001
 40
0.0
 40
0.0
 40
0.0
 40
0.0
 40
0.2500000000000056
 40
0.5000000000000052
 40
0.7500000000000014
 40
1.0
 40
1.0
 40
1.0
 40
1.0
 10
55.60600525601789
 20
34.74691691087851
 30
0.0
 10
55.61517784908434
 20
34.74709700674077
 30
0.0
 10
55.6335230352172
 20
34.74745719846525
 30
0.0
 10
55.65666118081399
 20
34.747997486052
 30
0.0
 10
55.67284862573256
 20
34.74853777363875
 30
0.0
 10
55.67495304592278
 20
34.74889796536325
 30
0.0
 10
55.6760052560179
 20
34.7490780612255
 30
0.0
  0
LINE
  5
E0
330
1F
100
AcDbEntity
  8
0
  6
Continuous
 62
     7
370
    30
100
AcDbLine
 10
55.676005256
 20
34.7490780612
 30
0.0
 11
55.636005256
 21
34.7490780612
 31
0.0
  0
SPLINE
  5
E1
330
1F
100
AcDbEntity
  8
0
  6
Continuous
 62
     7
370
    30
100
AcDbSpline
210
0.0
220
0.0
230
1.0
 70
     8
 71
     3
 72
    11
 73
     7
 74
     0
 42
0.00000001
 43
0.00000001
 40
0.0
 40
0.0
 40
0.0
 40
0.0
 40
0.2500000000000173
 40
0.4999999999999987
 40
0.7500000000000021
 40
1.0
 40
1.0
 40
1.0
 40
1.0
 10
5.996005256017911
 20
7.761916910878514
 30
0.0
 10
5.98683266295147
 20
7.761736815016267
 30
0.0
 10
5.968487476818593
 20
7.761376623291771
 30
0.0
 10
5.945349331221824
 20
7.760836335705019
 30
0.0
 10
5.929161886303246
 20
7.760296048118275
 30
0.0
 10
5.927057466113026
 20
7.759935856393775
 30
0.0
 10
5.926005256017909
 20
7.759755760531528
 30
0.0
  0
LINE
  5
E2
330
1F
100
AcDbEntity
  8
0
  6
Continuous
 62
     7
370
    30
100
AcDbLine
 10
5.926005256
 20
7.7597557605
 30
0.0
 11
5.966005256
 21
7.7597557605
 31
0.0
  0
LINE
  5
E3
330
1F
100
AcDbEntity
  8
0
  6
Continuous
 62
     7
370
    30
100
AcDbLine
 10
55.676005256
 20
7.7597557605
 30
0.0
 11
55.676005256
 21
34.7490780612
 31
0.0
  0
SPLINE
  5
E4
330
1F
100
AcDbEntity
  8
0
  6
Continuous
 62
     7
370
    30
100
AcDbSpline
210
0.0
220
0.0
230
1.0
 70
     8
 71
     3
 72
    11
 73
     7
 74
     0
 42
0.00000001
 43
0.00000001
 40
0.0
 40
0.0
 40
0.0
 40
0.0
 40
0.249999999999998
 40
0.4999999999999977
 40
0.74999999999998
 40
1.0
 40
1.0
 40
1.0
 40
1.0
 10
55.6760052560179
 20
7.759755760531523
 30
0.0
 10
55.67495304592278
 20
7.759935856393771
 30
0.0
 10
55.67284862573257
 20
7.760296048118271
 30
0.0
 10
55.65666118081399
 20
7.760836335705014
 30
0.0
 10
55.63352303521723
 20
7.761376623291762
 30
0.0
 10
55.61517784908434
 20
7.761736815016267
 30
0.0
 10
55.60600525601791
 20
7.76191691087851
 30
0.0
  0
LINE
  5
E5
330
1F
100
AcDbEntity
  8
0
  6
Continuous
 62
     7
370
    30
100
AcDbLine
 10
5.926005256
 20
34.7490780612
 30
0.0
 11
5.926005256
 21
7.7597557605
 31
0.0
  0
SPLINE
  5
E6
330
1F
100
AcDbEntity
  8
0
  6
Continuous
 62
     7
370
    30
100
AcDbSpline
210
0.0
220
0.0
230
1.0
 70
     8
 71
     3
 72
    11
 73
     7
 74
     0
 42
0.00000001
 43
0.00000001
 40
0.0
 40
0.0
 40
0.0
 40
0.0
 40
0.2499999999999976
 40
0.5000000000000019
 40
0.7499999999999821
 40
1.0
 40
1.0
 40
1.0
 40
1.0
 10
5.926005256017909
 20
34.7490780612255
 30
0.0
 10
5.927057466113022
 20
34.74889796536325
 30
0.0
 10
5.929161886303246
 20
34.74853777363875
 30
0.0
 10
5.945349331221819
 20
34.747997486052
 30
0.0
 10
5.968487476818598
 20
34.74745719846526
 30
0.0
 10
5.986832662951475
 20
34.74709700674076
 30
0.0
 10
5.996005256017911
 20
34.74691691087851
 30
0.0
  0
SPLINE
  5
E7
330
1F
100
AcDbEntity
  8
0
  6
Continuous
 62
     7
370
    30
100
AcDbSpline
210
0.0
220
0.0
230
1.0
 70
     8
 71
     3
 72
    11
 73
     7
 74
     0
 42
0.00000001
 43
0.00000001
 40
0.0
 40
0.0
 40
0.0
 40
0.0
 40
0.250000000000006
 40
0.4999999999999919
 40
0.7500000000000014
 40
1.0
 40
1.0
 40
1.0
 40
1.0
 10
55.60600525601791
 20
7.76191691087851
 30
0.0
 10
55.60618535188016
 20
7.75274431781207
 30
0.0
 10
55.60654554360465
 20
7.734399131679202
 30
0.0
 10
55.6070858311914
 20
7.711260986082419
 30
0.0
 10
55.60762611877816
 20
7.69507354116385
 30
0.0
 10
55.60798631050265
 20
7.692969120973625
 30
0.0
 10
55.6081664063649
 20
7.691916910878512
 30
0.0
  0
LINE
  5
E8
330
1F
100
AcDbEntity
  8
0
  6
Continuous
 62
     7
370
    30
100
AcDbLine
 10
55.6081664064
 20
7.6919169109
 30
0.0
 11
55.6081664064
 21
7.7319169109
 31
0.0
  0
LINE
  5
E9
330
1F
100
AcDbEntity
  8
0
  6
Continuous
 62
     7
370
    30
100
AcDbLine
 10
5.9938441057
 20
7.6919169109
 30
0.0
 11
55.6081664064
 21
7.6919169109
 31
0.0
  0
LINE
  5
EA
330
1F
100
AcDbEntity
  8
0
  6
Continuous
 62
     7
370
    30
100
AcDbLine
 10
5.926005256
 20
34.7490780612
 30
0.0
 11
5.966005256
 21
34.7490780612
 31
0.0
  0
LINE
  5
EB
330
1F
100
AcDbEntity
  8
0
  6
Continuous
 62
     7
370
    30
100
AcDbLine
 10
55.676005256
 20
7.7597557605
 30
0.0
 11
55.636005256
 21
7.7597557605
 31
0.0
  0
LINE
  5
EC
330
1F
100
AcDbEntity
  8
0
  6
Continuous
 62
     7
370
    30
100
AcDbLine
 10
5.966005256
 20
7.6947557605
 30
0.0
 11
5.926005256
 21
7.6947557605
 31
0.0
  0
LINE
  5
ED
330
1F
100
AcDbEntity
  8
0
  6
Continuous
 62
     7
370
    30
100
AcDbLine
 10
5.966005256
 20
7.7597557605
 30
0.0
 11
5.966005256
 21
7.6947557605
 31
0.0
  0
LINE
  5
EE
330
1F
100
AcDbEntity
  8
0
  6
Continuous
 62
     7
370
    30
100
AcDbLine
 10
5.926005256
 20
7.7597557605
 30
0.0
 11
5.926005256
 21
7.6947557605
 31
0.0
  0
LINE
  5
EF
330
1F
100
AcDbEntity
  8
0
  6
Continuous
 62
     7
370
    30
100
AcDbLine
 10
5.9938441057
 20
7.6669169109
 30
0.0
 11
7.9374898997
 21
7.6669169109
 31
0.0
  0
LINE
  5
F0
330
1F
100
AcDbEntity
  8
0
  6
Continuous
 62
     7
370
    30
100
AcDbLine
 10
25.9775206123
 20
7.6669169109
 30
0.0
 11
55.6081664064
 21
7.6669169109
 31
0.0
  0
LINE
  5
F1
330
1F
100
AcDbEntity
  8
0
  6
Continuous
 62
     7
370
    30
100
AcDbLine
 10
55.6081664064
 20
7.6669169109
 30
0.0
 11
55.6081664064
 21
7.6269169109
 31
0.0
  0
LINE
  5
F2
330
1F
100
AcDbEntity
  8
0
  6
Continuous
 62
     7
370
    30
100
AcDbLine
 10
5.9938441057
 20
7.6669169109
 30
0.0
 11
5.9938441057
 21
7.6269169109
 31
0.0
  0
LINE
  5
F3
330
1F
100
AcDbEntity
  8
0
  6
Continuous
 62
     7
370
    30
100
AcDbLine
 10
5.9938441057
 20
7.6269169109
 30
0.0
 11
7.9374898997
 21
7.6269169109
 31
0.0
  0
LINE
  5
F4
330
1F
100
AcDbEntity
  8
0
  6
Continuous
 62
     7
370
    30
100
AcDbLine
 10
25.9775206123
 20
7.6269169109
 30
0.0
 11
55.6081664064
 21
7.6269169109
 31
0.0
  0
LINE
  5
F5
330
1F
100
AcDbEntity
  8
0
  6
Continuous
 62
     7
370
    30
100
AcDbLine
 10
55.636005256
 20
7.6947557605
 30
0.0
 11
55.676005256
 21
7.6947557605
 31
0.0
  0
LINE
  5
F6
330
1F
100
AcDbEntity
  8
0
  6
Continuous
 62
     7
370
    30
100
AcDbLine
 10
55.676005256
 20
7.6947557605
 30
0.0
 11
55.676005256
 21
7.7597557605
 31
0.0
  0
LINE
  5
F7
330
1F
100
AcDbEntity
  8
0
  6
Continuous
 62
     7
370
    30
100
AcDbLine
 10
55.636005256
 20
7.6947557605
 30
0.0
 11
55.636005256
 21
7.7597557605
 31
0.0
  0
SPLINE
  5
F8
330
1F
100
AcDbEntity
  8
0
  6
Continuous
 62
     7
370
    30
100
AcDbSpline
210
0.0
220
0.0
230
1.0
 70
     8
 71
     3
 72
    11
 73
     7
 74
     0
 42
0.00000001
 43
0.00000001
 40
0.0
 40
0.0
 40
0.0
 40
0.0
 40
0.2623463653999874
 40
0.5246927308000021
 40
0.7870390962000575
 40
1.0
 40
1.0
 40
1.0
 40
1.0
 10
5.96600525601794
 20
7.694755760531516
 30
0.0
 10
5.966455423514571
 20
7.694935856393764
 30
0.0
 10
5.967355758507836
 20
7.695296048118268
 30
0.0
 10
5.974304930206333
 20
7.695836335705008
 30
0.0
 10
5.9835573896368
 20
7.696342721098082
 30
0.0
 10
5.99066123534552
 20
7.696669010628906
 30
0.0
 10
5.993844105670925
 20
7.69681520429748
 30
0.0
  0
SPLINE
  5
F9
330
1F
100
AcDbEntity
  8
0
  6
Continuous
 62
     7
370
    30
100
AcDbSpline
210
0.0
220
0.0
230
1.0
 70
     8
 71
     3
 72
    11
 73
     7
 74
     0
 42
0.00000001
 43
0.00000001
 40
0.0
 40
0.0
 40
0.0
 40
0.0
 40
0.212960903800857
 40
0.4753072692006086
 40
0.7376536346002833
 40
1.0
 40
1.0
 40
1.0
 40
1.0
 10
55.6081664063649
 20
7.696815204297655
 30
0.0
 10
55.61134927669032
 20
7.696669010629081
 30
0.0
 10
55.61845312239907
 20
7.696342721098257
 30
0.0
 10
55.62770558182954
 20
7.695836335705178
 30
0.0
 10
55.63465475352804
 20
7.695296048118439
 30
0.0
 10
55.63555508852131
 20
7.694935856393935
 30
0.0
 10
55.63600525601795
 20
7.694755760531686
 30
0.0
  0
SPLINE
  5
FA
330
1F
100
AcDbEntity
  8
0
  6
Continuous
 62
     7
370
    30
100
AcDbSpline
210
0.0
220
0.0
230
1.0
 70
     8
 71
     3
 72
    11
 73
     7
 74
     0
 42
0.00000001
 43
0.00000001
 40
0.0
 40
0.0
 40
0.0
 40
0.0
 40
0.158362276746324
 40
0.4389081844975425
 40
0.7194540922487757
 40
1.0
 40
1.0
 40
1.0
 40
1.0
 10
5.995769949434183
 20
7.691916910878512
 30
0.0
 10
5.995668289099854
 20
7.689713405406147
 30
0.0
 10
5.995386532903274
 20
7.683606290717744
 30
0.0
 10
5.994924680844437
 20
7.675232615375161
 30
0.0
 10
5.994384393257685
 20
7.668263405791332
 30
0.0
 10
5.994024201533199
 20
7.667365742516115
 30
0.0
 10
5.993844105670946
 20
7.666916910878501
 30
0.0
  0
SPLINE
  5
FB
330
1F
100
AcDbEntity
  8
0
  6
Continuous
 62
     7
370
    30
100
AcDbSpline
210
0.0
220
0.0
230
1.0
 70
     8
 71
     3
 72
    11
 73
     7
 74
     0
 42
0.00000001
 43
0.00000001
 40
0.0
 40
0.0
 40
0.0
 40
0.0
 40
0.2805459077523954
 40
0.5610918155047898
 40
0.8416377232571842
 40
1.0
 40
1.0
 40
1.0
 40
1.0
 10
55.60816640636494
 20
7.666916910878672
 30
0.0
 10
55.60798631050269
 20
7.667365742516281
 30
0.0
 10
55.6076261187782
 20
7.668263405791493
 30
0.0
 10
55.60708583119143
 20
7.675232615375349
 30
0.0
 10
55.60662397913261
 20
7.683606290717854
 30
0.0
 10
55.60634222293602
 20
7.689713405406204
 30
0.0
 10
55.60624056260169
 20
7.691916910878512
 30
0.0
  0
ARC
  5
FC
330
1F
100
AcDbEntity
  8
0
  6
Continuous
 62
     7
370
    30
100
AcDbCircle
 10
55.207005256
 20
33.1894169109
 30
0.0
 40
0.0939999999999998
100
AcDbArc
 50
20.227260475
 51
66.7437784399
  0
ARC
  5
FD
330
1F
100
AcDbEntity
  8
0
  6
Continuous
 62
     7
370
    30
100
AcDbCircle
 10
55.207005256
 20
9.1894169109
 30
0.0
 40
0.0940000000000044
100
AcDbArc
 50
20.2272604771
 51
66.7437902586
  0
ARC
  5
FE
330
1F
100
AcDbEntity
  8
0
  6
Continuous
 62
     7
370
    30
100
AcDbCircle
 10
55.207005256
 20
21.1894169109
 30
0.0
 40
0.0940000000000057
100
AcDbArc
 50
20.2272604752
 51
66.7437942201
  0
LINE
  5
FF
330
1F
100
AcDbEntity
  8
0
  6
Continuous
 62
     7
370
    30
100
AcDbLine
 10
55.675005256
 20
15.9819169109
 30
0.0
 11
55.6403418254
 21
15.9819169109
 31
0.0
  0
LINE
  5
100
330
1F
100
AcDbEntity
  8
0
  6
Continuous
 62
     7
370
    30
100
AcDbLine
 10
55.6403418254
 20
26.4819169109
 30
0.0
 11
55.675005256
 21
26.4819169109
 31
0.0
  0
LINE
  5
101
330
1F
100
AcDbEntity
  8
0
  6
Continuous
 62
     7
370
    30
100
AcDbLine
 10
55.675005256
 20
15.9819169109
 30
0.0
 11
55.675005256
 21
26.4819169109
 31
0.0
  0
LINE
  5
102
330
1F
100
AcDbEntity
  8
0
  6
Continuous
 62
     7
370
    30
100
AcDbLine
 10
55.704005256
 20
16.7319169109
 30
0.0
 11
55.704005256
 21
25.7319169109
 31
0.0
  0
LINE
  5
103
330
1F
100
AcDbEntity
  8
0
  6
Continuous
 62
     7
370
    30
100
AcDbLine
 10
55.704005256
 20
16.7319169109
 30
0.0
 11
55.676005256
 21
16.7319169109
 31
0.0
  0
LINE
  5
104
330
1F
100
AcDbEntity
  8
0
  6
Continuous
 62
     7
370
    30
100
AcDbLine
 10
55.704005256
 20
25.7319169109
 30
0.0
 11
55.676005256
 21
25.7319169109
 31
0.0
  0
LINE
  5
105
330
1F
100
AcDbEntity
  8
0
  6
Continuous
 62
     7
370
    30
100
AcDbLine
 10
59.636005256
 20
16.7319169109
 30
0.0
 11
60.245005256
 21
17.3409169109
 31
0.0
  0
LINE
  5
106
330
1F
100
AcDbEntity
  8
0
  6
Continuous
 62
     7
370
    30
100
AcDbLine
 10
59.636005256
 20
16.7319169109
 30
0.0
 11
55.704005256
 21
16.7319169109
 31
0.0
  0
LINE
  5
107
330
1F
100
AcDbEntity
  8
0
  6
Continuous
 62
     7
370
    30
100
AcDbLine
 10
59.636005256
 20
25.7319169109
 30
0.0
 11
55.704005256
 21
25.7319169109
 31
0.0
  0
LINE
  5
108
330
1F
100
AcDbEntity
  8
0
  6
Continuous
 62
     7
370
    30
100
AcDbLine
 10
60.245005256
 20
17.3409169109
 30
0.0
 11
60.245005256
 21
25.1229169109
 31
0.0
  0
CIRCLE
  5
109
330
1F
100
AcDbEntity
  8
0
  6
Continuous
 62
     7
370
    30
100
AcDbCircle
 10
56.120005256
 20
17.0759169109
 30
0.0
 40
0.09375
  0
CIRCLE
  5
10A
330
1F
100
AcDbEntity
  8
0
  6
Continuous
 62
     7
370
    30
100
AcDbCircle
 10
57.574005256
 20
19.7319169109
 30
0.0
 40
0.09375
  0
CIRCLE
  5
10B
330
1F
100
AcDbEntity
  8
0
  6
Continuous
 62
     7
370
    30
100
AcDbCircle
 10
58.495005256
 20
17.0759169109
 30
0.0
 40
0.09375
  0
CIRCLE
  5
10C
330
1F
100
AcDbEntity
  8
0
  6
Continuous
 62
     7
370
    30
100
AcDbCircle
 10
58.495005256
 20
25.3879169109
 30
0.0
 40
0.09375
  0
CIRCLE
  5
10D
330
1F
100
AcDbEntity
  8
0
  6
Continuous
 62
     7
370
    30
100
AcDbCircle
 10
57.574005256
 20
22.7319169109
 30
0.0
 40
0.0937499999999929
  0
CIRCLE
  5
10E
330
1F
100
AcDbEntity
  8
0
  6
Continuous
 62
     7
370
    30
100
AcDbCircle
 10
56.120005256
 20
25.3879169109
 30
0.0
 40
0.09375
  0
LINE
  5
10F
330
1F
100
AcDbEntity
  8
0
  6
Continuous
 62
     7
370
    30
100
AcDbLine
 10
60.245005256
 20
25.1229169109
 30
0.0
 11
59.636005256
 21
25.7319169109
 31
0.0
  0
LINE
  5
110
330
1F
100
AcDbEntity
  8
0
  6
Continuous
 62
     7
370
    30
100
AcDbLine
 10
25.9775206123
 20
7.6919169109
 30
0.0
 11
25.9775206123
 21
1.4474015546
 31
0.0
  0
LINE
  5
111
330
1F
100
AcDbEntity
  8
0
  6
Continuous
 62
     7
370
    30
100
AcDbLine
 10
25.9425206123
 20
1.4474015546
 30
0.0
 11
25.9775206123
 21
1.4474015546
 31
0.0
  0
ARC
  5
112
330
1F
100
AcDbEntity
  8
0
  6
Continuous
 62
     7
370
    30
100
AcDbCircle
 10
19.957505256
 20
4.5409015546
 30
0.0
 40
0.4375000000000032
100
AcDbArc
 50
278.2793756981
 51
81.7206243019
  0
LINE
  5
113
330
1F
100
AcDbEntity
  8
0
  6
Continuous
 62
     7
370
    30
100
AcDbLine
 10
20.020505256
 20
4.9108417929
 30
0.0
 11
20.020505256
 21
4.9738417929
 31
0.0
  0
LINE
  5
114
330
1F
100
AcDbEntity
  8
0
  6
Continuous
 62
     7
370
    30
100
AcDbLine
 10
19.894505256
 20
4.9108417929
 30
0.0
 11
20.020505256
 21
4.9108417929
 31
0.0
  0
LINE
  5
115
330
1F
100
AcDbEntity
  8
0
  6
Continuous
 62
     7
370
    30
100
AcDbLine
 10
19.894505256
 20
4.9738417929
 30
0.0
 11
19.894505256
 21
4.9108417929
 31
0.0
  0
ARC
  5
116
330
1F
100
AcDbEntity
  8
0
  6
Continuous
 62
     7
370
    30
100
AcDbCircle
 10
19.957505256
 20
4.5409015546
 30
0.0
 40
0.4375000000000012
100
AcDbArc
 50
98.2793756981
 51
261.7206243019
  0
LINE
  5
117
330
1F
100
AcDbEntity
  8
0
  6
Continuous
 62
     7
370
    30
100
AcDbLine
 10
19.894505256
 20
4.1706902562
 30
0.0
 11
19.894505256
 21
4.1079613162
 31
0.0
  0
LINE
  5
118
330
1F
100
AcDbEntity
  8
0
  6
Continuous
 62
     7
370
    30
100
AcDbLine
 10
20.020505256
 20
4.1709614621
 30
0.0
 11
19.894505256
 21
4.1706902562
 31
0.0
  0
LINE
  5
119
330
1F
100
AcDbEntity
  8
0
  6
Continuous
 62
     7
370
    30
100
AcDbLine
 10
20.020505256
 20
4.1079613162
 30
0.0
 11
20.020505256
 21
4.1709614621
 31
0.0
  0
ARC
  5
11A
330
1F
100
AcDbEntity
  8
0
  6
Continuous
 62
     7
370
    30
100
AcDbCircle
 10
13.957505256
 20
4.5409015546
 30
0.0
 40
0.4375000000000022
100
AcDbArc
 50
278.2793756981
 51
81.7206243019
  0
LINE
  5
11B
330
1F
100
AcDbEntity
  8
0
  6
Continuous
 62
     7
370
    30
100
AcDbLine
 10
14.020505256
 20
4.9108417929
 30
0.0
 11
14.020505256
 21
4.9738417929
 31
0.0
  0
LINE
  5
11C
330
1F
100
AcDbEntity
  8
0
  6
Continuous
 62
     7
370
    30
100
AcDbLine
 10
13.894505256
 20
4.9108417929
 30
0.0
 11
14.020505256
 21
4.9108417929
 31
0.0
  0
LINE
  5
11D
330
1F
100
AcDbEntity
  8
0
  6
Continuous
 62
     7
370
    30
100
AcDbLine
 10
13.894505256
 20
4.9738417929
 30
0.0
 11
13.894505256
 21
4.9108417929
 31
0.0
  0
ARC
  5
11E
330
1F
100
AcDbEntity
  8
0
  6
Continuous
 62
     7
370
    30
100
AcDbCircle
 10
13.957505256
 20
4.5409015546
 30
0.0
 40
0.4375000000000024
100
AcDbArc
 50
98.2793756981
 51
261.7206243019
  0
LINE
  5
11F
330
1F
100
AcDbEntity
  8
0
  6
Continuous
 62
     7
370
    30
100
AcDbLine
 10
13.894505256
 20
4.1706902562
 30
0.0
 11
13.894505256
 21
4.1079613162
 31
0.0
  0
LINE
  5
120
330
1F
100
AcDbEntity
  8
0
  6
Continuous
 62
     7
370
    30
100
AcDbLine
 10
14.020505256
 20
4.1709614621
 30
0.0
 11
13.894505256
 21
4.1706902562
 31
0.0
  0
LINE
  5
121
330
1F
100
AcDbEntity
  8
0
  6
Continuous
 62
     7
370
    30
100
AcDbLine
 10
14.020505256
 20
4.1079613162
 30
0.0
 11
14.020505256
 21
4.1709614621
 31
0.0
  0
LINE
  5
122
330
1F
100
AcDbEntity
  8
0
  6
Continuous
 62
     7
370
    30
100
AcDbLine
 10
25.8525206123
 20
1.4474015546
 30
0.0
 11
25.9425206123
 21
1.4474015546
 31
0.0
  0
LINE
  5
123
330
1F
100
AcDbEntity
  8
0
  6
Continuous
 62
     7
370
    30
100
AcDbLine
 10
8.0395206123
 20
1.4474015546
 30
0.0
 11
7.9724898997
 21
1.4474015546
 31
0.0
  0
LINE
  5
124
330
1F
100
AcDbEntity
  8
0
  6
Continuous
 62
     7
370
    30
100
AcDbLine
 10
7.9724898997
 20
1.4474015546
 30
0.0
 11
7.9374898997
 21
1.4474015546
 31
0.0
  0
LINE
  5
125
330
1F
100
AcDbEntity
  8
0
  6
Continuous
 62
     7
370
    30
100
AcDbLine
 10
7.9374898997
 20
1.4474015546
 30
0.0
 11
7.9374898997
 21
7.6919169109
 31
0.0
  0
LINE
  5
126
330
1F
100
AcDbEntity
  8
0
  6
Continuous
 62
     7
370
    30
100
AcDbLine
 10
13.894505256
 20
4.1706902562
 30
0.0
 11
13.894505256
 21
4.1709613162
 31
0.0
  0
LINE
  5
127
330
1F
100
AcDbEntity
  8
0
  6
Continuous
 62
     7
370
    30
100
AcDbLine
 10
13.894505256
 20
4.1709613162
 30
0.0
 11
14.0204374546
 21
4.1709613162
 31
0.0
  0
LINE
  5
128
330
1F
100
AcDbEntity
  8
0
  6
Continuous
 62
     7
370
    30
100
AcDbLine
 10
19.894505256
 20
4.1709613162
 30
0.0
 11
20.0204374546
 21
4.1709613162
 31
0.0
  0
LINE
  5
129
330
1F
100
AcDbEntity
  8
0
  6
Continuous
 62
     7
370
    30
100
AcDbLine
 10
19.894505256
 20
4.1706902562
 30
0.0
 11
19.894505256
 21
4.1709613162
 31
0.0
  0
LINE
  5
12A
330
1F
100
AcDbEntity
  8
0
  6
Continuous
 62
     7
370
    30
100
AcDbLine
 10
7.9374898997
 20
34.8169169109
 30
0.0
 11
7.9374898997
 21
41.0164322672
 31
0.0
  0
LINE
  5
12B
330
1F
100
AcDbEntity
  8
0
  6
Continuous
 62
     7
370
    30
100
AcDbLine
 10
7.9724898997
 20
41.0164322672
 30
0.0
 11
7.9374898997
 21
41.0164322672
 31
0.0
  0
ARC
  5
12C
330
1F
100
AcDbEntity
  8
0
  6
Continuous
 62
     7
370
    30
100
AcDbCircle
 10
13.957505256
 20
37.9229322672
 30
0.0
 40
0.4375000000000028
100
AcDbArc
 50
278.2793756981
 51
81.7206243019
  0
LINE
  5
12D
330
1F
100
AcDbEntity
  8
0
  6
Continuous
 62
     7
370
    30
100
AcDbLine
 10
14.020505256
 20
38.2928725056
 30
0.0
 11
14.020505256
 21
38.3558725056
 31
0.0
  0
LINE
  5
12E
330
1F
100
AcDbEntity
  8
0
  6
Continuous
 62
     7
370
    30
100
AcDbLine
 10
13.894505256
 20
38.2928725056
 30
0.0
 11
14.020505256
 21
38.2928725056
 31
0.0
  0
LINE
  5
12F
330
1F
100
AcDbEntity
  8
0
  6
Continuous
 62
     7
370
    30
100
AcDbLine
 10
13.894505256
 20
38.3558725056
 30
0.0
 11
13.894505256
 21
38.2928725056
 31
0.0
  0
ARC
  5
130
330
1F
100
AcDbEntity
  8
0
  6
Continuous
 62
     7
370
    30
100
AcDbCircle
 10
13.957505256
 20
37.9229322672
 30
0.0
 40
0.4375000000000036
100
AcDbArc
 50
98.2793756981
 51
261.7206243019
  0
LINE
  5
131
330
1F
100
AcDbEntity
  8
0
  6
Continuous
 62
     7
370
    30
100
AcDbLine
 10
13.894505256
 20
37.5527209688
 30
0.0
 11
13.894505256
 21
37.4899920288
 31
0.0
  0
LINE
  5
132
330
1F
100
AcDbEntity
  8
0
  6
Continuous
 62
     7
370
    30
100
AcDbLine
 10
14.020505256
 20
37.5529921748
 30
0.0
 11
13.894505256
 21
37.5527209688
 31
0.0
  0
LINE
  5
133
330
1F
100
AcDbEntity
  8
0
  6
Continuous
 62
     7
370
    30
100
AcDbLine
 10
14.020505256
 20
37.4899920288
 30
0.0
 11
14.020505256
 21
37.5529921748
 31
0.0
  0
ARC
  5
134
330
1F
100
AcDbEntity
  8
0
  6
Continuous
 62
     7
370
    30
100
AcDbCircle
 10
19.957505256
 20
37.9229322672
 30
0.0
 40
0.4375000000000031
100
AcDbArc
 50
278.2793756981
 51
81.7206243019
  0
LINE
  5
135
330
1F
100
AcDbEntity
  8
0
  6
Continuous
 62
     7
370
    30
100
AcDbLine
 10
20.020505256
 20
38.2928725056
 30
0.0
 11
20.020505256
 21
38.3558725056
 31
0.0
  0
LINE
  5
136
330
1F
100
AcDbEntity
  8
0
  6
Continuous
 62
     7
370
    30
100
AcDbLine
 10
19.894505256
 20
38.2928725056
 30
0.0
 11
20.020505256
 21
38.2928725056
 31
0.0
  0
LINE
  5
137
330
1F
100
AcDbEntity
  8
0
  6
Continuous
 62
     7
370
    30
100
AcDbLine
 10
19.894505256
 20
38.3558725056
 30
0.0
 11
19.894505256
 21
38.2928725056
 31
0.0
  0
ARC
  5
138
330
1F
100
AcDbEntity
  8
0
  6
Continuous
 62
     7
370
    30
100
AcDbCircle
 10
19.957505256
 20
37.9229322672
 30
0.0
 40
0.4375000000000036
100
AcDbArc
 50
98.2793756981
 51
261.7206243019
  0
LINE
  5
139
330
1F
100
AcDbEntity
  8
0
  6
Continuous
 62
     7
370
    30
100
AcDbLine
 10
19.894505256
 20
37.5527209688
 30
0.0
 11
19.894505256
 21
37.4899920288
 31
0.0
  0
LINE
  5
13A
330
1F
100
AcDbEntity
  8
0
  6
Continuous
 62
     7
370
    30
100
AcDbLine
 10
20.020505256
 20
37.5529921748
 30
0.0
 11
19.894505256
 21
37.5527209688
 31
0.0
  0
LINE
  5
13B
330
1F
100
AcDbEntity
  8
0
  6
Continuous
 62
     7
370
    30
100
AcDbLine
 10
20.020505256
 20
37.4899920288
 30
0.0
 11
20.020505256
 21
37.5529921748
 31
0.0
  0
LINE
  5
13C
330
1F
100
AcDbEntity
  8
0
  6
Continuous
 62
     7
370
    30
100
AcDbLine
 10
8.0395206123
 20
41.0164322672
 30
0.0
 11
7.9724898997
 21
41.0164322672
 31
0.0
  0
LINE
  5
13D
330
1F
100
AcDbEntity
  8
0
  6
Continuous
 62
     7
370
    30
100
AcDbLine
 10
25.8525206123
 20
41.0164322672
 30
0.0
 11
25.9425206123
 21
41.0164322672
 31
0.0
  0
LINE
  5
13E
330
1F
100
AcDbEntity
  8
0
  6
Continuous
 62
     7
370
    30
100
AcDbLine
 10
25.9425206123
 20
41.0164322672
 30
0.0
 11
25.9775206123
 21
41.0164322672
 31
0.0
  0
LINE
  5
13F
330
1F
100
AcDbEntity
  8
0
  6
Continuous
 62
     7
370
    30
100
AcDbLine
 10
25.9775206123
 20
41.0164322672
 30
0.0
 11
25.9775206123
 21
34.8169169109
 31
0.0
  0
LINE
  5
140
330
1F
100
AcDbEntity
  8
0
  6
Continuous
 62
     7
370
    30
100
AcDbLine
 10
19.894505256
 20
37.5527209688
 30
0.0
 11
19.894505256
 21
37.5529920288
 31
0.0
  0
LINE
  5
141
330
1F
100
AcDbEntity
  8
0
  6
Continuous
 62
     7
370
    30
100
AcDbLine
 10
19.894505256
 20
37.5529920288
 30
0.0
 11
20.0204374546
 21
37.5529920288
 31
0.0
  0
LINE
  5
142
330
1F
100
AcDbEntity
  8
0
  6
Continuous
 62
     7
370
    30
100
AcDbLine
 10
13.894505256
 20
37.5527209688
 30
0.0
 11
13.894505256
 21
37.5529920288
 31
0.0
  0
LINE
  5
143
330
1F
100
AcDbEntity
  8
0
  6
Continuous
 62
     7
370
    30
100
AcDbLine
 10
13.894505256
 20
37.5529920288
 30
0.0
 11
14.0204374546
 21
37.5529920288
 31
0.0
  0
LINE
  5
144
330
1F
100
AcDbEntity
  8
0
  6
Continuous
 62
     7
370
    30
100
AcDbLine
 10
8.0395206123
 20
1.6938861982
 30
0.0
 11
25.8525206123
 21
1.6938861982
 31
0.0
  0
LINE
  5
145
330
1F
100
AcDbEntity
  8
0
  6
Continuous
 62
     7
370
    30
100
AcDbLine
 10
25.8525206123
 20
1.6938861982
 30
0.0
 11
25.8525206123
 21
1.2928861982
 31
0.0
  0
LINE
  5
146
330
1F
100
AcDbEntity
  8
0
  6
Continuous
 62
     7
370
    30
100
AcDbLine
 10
25.8525206123
 20
1.2928861982
 30
0.0
 11
8.0395206123
 21
1.2928861982
 31
0.0
  0
LINE
  5
147
330
1F
100
AcDbEntity
  8
0
  6
Continuous
 62
     7
370
    30
100
AcDbLine
 10
8.0395206123
 20
1.6938861982
 30
0.0
 11
8.0395206123
 21
1.2928861982
 31
0.0
  0
LINE
  5
148
330
1F
100
AcDbEntity
  8
0
  6
Continuous
 62
     7
370
    30
100
AcDbLine
 10
8.0395206123
 20
1.2928861982
 30
0.0
 11
8.0395206123
 21
1.2558861982
 31
0.0
  0
LINE
  5
149
330
1F
100
AcDbEntity
  8
0
  6
Continuous
 62
     7
370
    30
100
AcDbLine
 10
25.8525206123
 20
1.2558861982
 30
0.0
 11
25.8525206123
 21
1.2928861982
 31
0.0
  0
LINE
  5
14A
330
1F
100
AcDbEntity
  8
0
  6
Continuous
 62
     7
370
    30
100
AcDbLine
 10
25.8525206123
 20
1.2558861982
 30
0.0
 11
8.0395206123
 21
1.2558861982
 31
0.0
  0
LINE
  5
14B
330
1F
100
AcDbEntity
  8
0
  6
Continuous
 62
     7
370
    30
100
AcDbLine
 10
25.8525206123
 20
41.1709476235
 30
0.0
 11
25.8525206123
 21
41.2079476235
 31
0.0
  0
LINE
  5
14C
330
1F
100
AcDbEntity
  8
0
  6
Continuous
 62
     7
370
    30
100
AcDbLine
 10
8.0395206123
 20
41.1709476235
 30
0.0
 11
25.8525206123
 21
41.1709476235
 31
0.0
  0
LINE
  5
14D
330
1F
100
AcDbEntity
  8
0
  6
Continuous
 62
     7
370
    30
100
AcDbLine
 10
8.0395206123
 20
41.2079476235
 30
0.0
 11
8.0395206123
 21
41.1709476235
 31
0.0
  0
LINE
  5
14E
330
1F
100
AcDbEntity
  8
0
  6
Continuous
 62
     7
370
    30
100
AcDbLine
 10
8.0395206123
 20
41.2079476235
 30
0.0
 11
25.8525206123
 21
41.2079476235
 31
0.0
  0
LINE
  5
14F
330
1F
100
AcDbEntity
  8
0
  6
Continuous
 62
     7
370
    30
100
AcDbLine
 10
8.0395206123
 20
40.7699476235
 30
0.0
 11
25.8525206123
 21
40.7699476235
 31
0.0
  0
LINE
  5
150
330
1F
100
AcDbEntity
  8
0
  6
Continuous
 62
     7
370
    30
100
AcDbLine
 10
8.0395206123
 20
40.7699476235
 30
0.0
 11
8.0395206123
 21
41.1709476235
 31
0.0
  0
LINE
  5
151
330
1F
100
AcDbEntity
  8
0
  6
Continuous
 62
     7
370
    30
100
AcDbLine
 10
25.8525206123
 20
41.1709476235
 30
0.0
 11
25.8525206123
 21
40.7699476235
 31
0.0
  0
LINE
  5
152
330
1F
100
AcDbEntity
  8
0
  6
Continuous
 62
     7
370
    30
100
AcDbLine
 10
8.0395206123
 20
41.1129169109
 30
0.0
 11
8.0305206123
 21
41.1129169109
 31
0.0
  0
LINE
  5
153
330
1F
100
AcDbEntity
  8
0
  6
Continuous
 62
     7
370
    30
100
AcDbLine
 10
8.0305206123
 20
41.1129169109
 30
0.0
 11
8.0305206123
 21
41.0164322672
 31
0.0
  0
SPLINE
  5
154
330
1F
100
AcDbEntity
  8
0
  6
Continuous
 62
     7
370
    30
100
AcDbSpline
210
0.0
220
0.0
230
1.0
 70
     8
 71
     3
 72
     9
 73
     5
 74
     0
 42
0.00000001
 43
0.00000001
 40
0.0
 40
0.0
 40
0.0
 40
0.0
 40
0.5449356439849881
 40
1.0
 40
1.0
 40
1.0
 40
1.0
 10
8.030520612342771
 20
41.11191691087848
 30
0.0
 10
8.030961580213402
 20
41.11656674756691
 30
0.0
 10
8.031770791127558
 20
41.12509956559737
 30
0.0
 10
8.037096893154082
 20
41.13176142606932
 30
0.0
 10
8.039520612342846
 20
41.13479300131486
 30
0.0
  0
LINE
  5
155
330
1F
100
AcDbEntity
  8
0
  6
Continuous
 62
     7
370
    30
100
AcDbLine
 10
8.0395206123
 20
1.3509169109
 30
0.0
 11
8.0305206123
 21
1.3509169109
 31
0.0
  0
LINE
  5
156
330
1F
100
AcDbEntity
  8
0
  6
Continuous
 62
     7
370
    30
100
AcDbLine
 10
8.0305206123
 20
1.3509169109
 30
0.0
 11
8.0305206123
 21
1.4474015546
 31
0.0
  0
SPLINE
  5
157
330
1F
100
AcDbEntity
  8
0
  6
Continuous
 62
     7
370
    30
100
AcDbSpline
210
0.0
220
0.0
230
1.0
 70
     8
 71
     3
 72
     9
 73
     5
 74
     0
 42
0.00000001
 43
0.00000001
 40
0.0
 40
0.0
 40
0.0
 40
0.0
 40
0.4550643560219998
 40
1.0
 40
1.0
 40
1.0
 40
1.0
 10
8.039520612343056
 20
1.329040820441826
 30
0.0
 10
8.037096893154208
 20
1.332072395687437
 30
0.0
 10
8.031770791127606
 20
1.33873425615948
 30
0.0
 10
8.030961580213429
 20
1.34726707419005
 30
0.0
 10
8.030520612342789
 20
1.351916910878479
 30
0.0
  0
LINE
  5
158
330
1F
100
AcDbEntity
  8
0
  6
Continuous
 62
     7
370
    30
100
AcDbLine
 10
5.854005256
 20
22.7314169362
 30
0.0
 11
5.854005256
 21
32.6064169109
 31
0.0
  0
SPLINE
  5
159
330
1F
100
AcDbEntity
  8
0
  6
Continuous
 62
     7
370
    30
100
AcDbSpline
210
0.0
220
0.0
230
1.0
 70
     8
 71
     3
 72
    11
 73
     7
 74
     0
 42
0.00000001
 43
0.00000001
 40
0.0
 40
0.0
 40
0.0
 40
0.0
 40
0.1502734307348529
 40
0.4489734550837121
 40
0.7476734788989393
 40
1.0
 40
1.0
 40
1.0
 40
1.0
 10
5.85400525601788
 20
22.73141693619495
 30
0.0
 10
5.854361208326475
 20
22.724368035867
 30
0.0
 10
5.855424690653659
 20
22.70330796477323
 30
0.0
 10
5.86783309383634
 20
22.66982266321761
 30
0.0
 10
5.892550869009552
 20
22.63719996807999
 30
0.0
 10
5.91549751110912
 20
22.62487708878503
 30
0.0
 10
5.926005256017878
 20
22.61923418593192
 30
0.0
  0
SPLINE
  5
15A
330
1F
100
AcDbEntity
  8
0
  6
Continuous
 62
     7
370
    30
100
AcDbSpline
210
0.0
220
0.0
230
1.0
 70
     8
 71
     3
 72
    12
 73
     8
 74
     0
 42
0.00000001
 43
0.00000001
 40
0.0
 40
0.0
 40
0.0
 40
0.0
 40
0.0660120046282228
 40
0.364795850886164
 40
0.6635796983468004
 40
0.9623635472556255
 40
1.0
 40
1.0
 40
1.0
 40
1.0
 10
5.926005256017878
 20
22.61955636202856
 30
0.0
 10
5.923063098030529
 20
22.62053375000951
 30
0.0
 10
5.906804130703562
 20
22.62593499607325
 30
0.0
 10
5.883250980974013
 20
22.64839978801513
 30
0.0
 10
5.860644241562214
 20
22.68398216960902
 30
0.0
 10
5.854244017766126
 20
22.71391010993833
 30
0.0
 10
5.854029279498674
 20
22.72965545259289
 30
0.0
 10
5.85400525601788
 20
22.73141693619495
 30
0.0
  0
SPLINE
  5
15B
330
1F
100
AcDbEntity
  8
0
  6
Continuous
 62
     7
370
    30
100
AcDbSpline
210
0.0
220
0.0
230
1.0
 70
    11
 71
     3
 72
    26
 73
    22
 74
     0
 42
0.00000001
 43
0.00000001
 40
0.0
 40
0.0
 40
0.0
 40
0.0
 40
0.0539616036841794
 40
0.1079209150486215
 40
0.1619076881913812
 40
0.2156961398138348
 40
0.2691392430263682
 40
0.3223709874787554
 40
0.3757109061861886
 40
0.4293796755110469
 40
0.4833225929523635
 40
0.5373025398476593
 40
0.5911347960018429
 40
0.6448044528300719
 40
0.6983932774795251
 40
0.7519667862901805
 40
0.8055434774382131
 40
0.8591200967207081
 40
0.9126933927074362
 40
0.9662822676896723
 40
1.0
 40
1.0
 40
1.0
 40
1.0
 10
5.542005256017903
 20
28.04391691087849
 30
0.0
 10
5.539566117483089
 20
28.06862648673129
 30
0.0
 10
5.534687944029451
 20
28.11804458876
 30
0.0
 10
5.496714494737234
 20
28.18372922488586
 30
0.0
 10
5.44081700460539
 20
28.23357053465418
 30
0.0
 10
5.371168444561889
 20
28.26184900910958
 30
0.0
 10
5.296492499368965
 20
28.26548890601045
 30
0.0
 10
5.225015497696491
 20
28.24438283817389
 30
0.0
 10
5.164481795704784
 20
28.20097366319926
 30
0.0
 10
5.121485709446233
 20
28.13985783797595
 30
0.0
 10
5.101050217527125
 20
28.0676664688317
 30
0.0
 10
5.105753399669684
 20
27.99262462039213
 30
0.0
 10
5.135103667978826
 20
27.92343596306585
 30
0.0
 10
5.185656853547097
 20
27.86798611445643
 30
0.0
 10
5.251633277714665
 20
27.83244582990378
 30
0.0
 10
5.325625473724953
 20
27.82074320839093
 30
0.0
 10
5.39929080067866
 20
27.83417417523243
 30
0.0
 10
5.464453004756531
 20
27.87123056309672
 30
0.0
 10
5.513308013060342
 20
27.92767622770439
 30
0.0
 10
5.538533349831765
 20
27.98865231296018
 30
0.0
 10
5.54103797287655
 20
28.02852003348208
 30
0.0
 10
5.542005256017903
 20
28.04391691087849
 30
0.0
  0
LINE
  5
15C
330
1F
100
AcDbEntity
  8
0
  6
Continuous
 62
     7
370
    30
100
AcDbLine
 10
5.854005256
 20
22.7314169362
 30
0.0
 11
2.698005256
 21
22.7314169362
 31
0.0
  0
SPLINE
  5
15D
330
1F
100
AcDbEntity
  8
0
  6
Continuous
 62
     7
370
    30
100
AcDbSpline
210
0.0
220
0.0
230
1.0
 70
    11
 71
     3
 72
    26
 73
    22
 74
     0
 42
0.00000001
 43
0.00000001
 40
0.0
 40
0.0
 40
0.0
 40
0.0
 40
0.0537303980677426
 40
0.1074653320050244
 40
0.1610999522845014
 40
0.2146791532344363
 40
0.2682529861249535
 40
0.3218300099465935
 40
0.3754051973225955
 40
0.4289790957497874
 40
0.4825836778140744
 40
0.5362974830968308
 40
0.5901854061985545
 40
0.6441806117559058
 40
0.6980586283243316
 40
0.7516122343384153
 40
0.8048804746895015
 40
0.8581508142573194
 40
0.9117057945304435
 40
0.9655820325983059
 40
1.0
 40
1.0
 40
1.0
 40
1.0
 10
5.54200525601789
 20
27.29391691087849
 30
0.0
 10
5.539586712281808
 20
27.31853863785895
 30
0.0
 10
5.534749420638447
 20
27.36778417036284
 30
0.0
 10
5.496967023454572
 20
27.43338747052973
 30
0.0
 10
5.44132230353704
 20
27.48321847698795
 30
0.0
 10
5.371910795613792
 20
27.511677649193
 30
0.0
 10
5.297137474761269
 20
27.51560157830487
 30
0.0
 10
5.225247910496066
 20
27.4945584909417
 30
0.0
 10
5.164389389659056
 20
27.45092866835039
 30
0.0
 10
5.121400189011133
 20
27.38965166342736
 30
0.0
 10
5.101087471335431
 20
27.31762716419779
 30
0.0
 10
5.105723638756812
 20
27.24288813312181
 30
0.0
 10
5.134883622576454
 20
27.17377031423899
 30
0.0
 10
5.185410772745145
 20
27.11813978781653
 30
0.0
 10
5.251528610312392
 20
27.0824626126257
 30
0.0
 10
5.325509382686429
 20
27.0707651743311
 30
0.0
 10
5.398879625280477
 20
27.08408257168985
 30
0.0
 10
5.463781813095995
 20
27.12074054922377
 30
0.0
 10
5.512748834588277
 20
27.17677798490637
 30
0.0
 10
5.53841381873627
 20
27.23790187565964
 30
0.0
 10
5.540997939723257
 20
27.27820597030058
 30
0.0
 10
5.54200525601789
 20
27.29391691087849
 30
0.0
  0
SPLINE
  5
15E
330
1F
100
AcDbEntity
  8
0
  6
Continuous
 62
     7
370
    30
100
AcDbSpline
210
0.0
220
0.0
230
1.0
 70
    11
 71
     3
 72
    26
 73
    22
 74
     0
 42
0.00000001
 43
0.00000001
 40
0.0
 40
0.0
 40
0.0
 40
0.0
 40
0.0536821331384454
 40
0.1073640318709016
 40
0.1610520136295466
 40
0.21474395459506
 40
0.2684292861575886
 40
0.3221077583705761
 40
0.3757898244054201
 40
0.4294803295718267
 40
0.4831709488430739
 40
0.5368531749872656
 40
0.5905316031720512
 40
0.6442167556493715
 40
0.6979086592069165
 40
0.7515968034966715
 40
0.8052765479203446
 40
0.858956361292829
 40
0.9126446034401924
 40
0.966336482180155
 40
1.0
 40
1.0
 40
1.0
 40
1.0
 10
5.323005256017887
 20
31.22591849957812
 30
0.0
 10
5.333546210449988
 20
31.22520000846993
 30
0.0
 10
5.354628073286524
 20
31.22376302939091
 30
0.0
 10
5.382686377201301
 20
31.21253694077084
 30
0.0
 10
5.404018563545276
 20
31.19593186747952
 30
0.0
 10
5.416218309382705
 20
31.17507891352519
 30
0.0
 10
5.417908691367455
 20
31.15245807160019
 30
0.0
 10
5.408901531019256
 20
31.13056508930275
 30
0.0
 10
5.39021298661786
 20
31.11191782499444
 30
0.0
 10
5.363946617589674
 20
31.09868310266014
 30
0.0
 10
5.333063277258642
 20
31.09242463906014
 30
0.0
 10
5.301048129678665
 20
31.09388613030688
 30
0.0
 10
5.271510012851906
 20
31.10289164394227
 30
0.0
 10
5.247775077226862
 20
31.11837432470215
 30
0.0
 10
5.232519270751697
 20
31.13851743371106
 30
0.0
 10
5.227465534647797
 20
31.1609904121146
 30
0.0
 10
5.233181090457454
 20
31.18322504045334
 30
0.0
 10
5.249024015518743
 20
31.20277891614069
 30
0.0
 10
5.273194146063189
 20
31.21737478796112
 30
0.0
 10
5.29932189928897
 20
31.22488628054243
 30
0.0
 10
5.316417318046668
 20
31.22563136988372
 30
0.0
 10
5.323005256017887
 20
31.22591849957812
 30
0.0
  0
SPLINE
  5
15F
330
1F
100
AcDbEntity
  8
0
  6
Continuous
 62
     7
370
    30
100
AcDbSpline
210
0.0
220
0.0
230
1.0
 70
    11
 71
     3
 72
    26
 73
    22
 74
     0
 42
0.00000001
 43
0.00000001
 40
0.0
 40
0.0
 40
0.0
 40
0.0
 40
0.0536821331384452
 40
0.107364031870896
 40
0.1610520136295426
 40
0.214743954595051
 40
0.2684292861575845
 40
0.3221077583705774
 40
0.3757898244054119
 40
0.4294803295718259
 40
0.4831709488430871
 40
0.536853174987264
 40
0.5905316031720431
 40
0.644216755649363
 40
0.6979086592069117
 40
0.7515968034966639
 40
0.8052765479203381
 40
0.8589563612928252
 40
0.9126446034401862
 40
0.9663364821801548
 40
1.0
 40
1.0
 40
1.0
 40
1.0
 10
5.323005256017883
 20
24.2444978436514
 30
0.0
 10
5.333546210449975
 20
24.24375072069795
 30
0.0
 10
5.354628073286515
 20
24.2422564780534
 30
0.0
 10
5.382686377201301
 20
24.23063243075289
 30
0.0
 10
5.404018563545258
 20
24.21358541329212
 30
0.0
 10
5.416218309382701
 20
24.1924150840085
 30
0.0
 10
5.417908691367447
 20
24.16974726828108
 30
0.0
 10
5.408901531019239
 20
24.14809642526333
 30
0.0
 10
5.390212986617847
 20
24.12987480858685
 30
0.0
 10
5.363946617589656
 20
24.11706267826583
 30
0.0
 10
5.333063277258629
 20
24.1110385328929
 30
0.0
 10
5.301048129678643
 20
24.11244333549571
 30
0.0
 10
5.271510012851898
 20
24.1211260753816
 30
0.0
 10
5.247775077226844
 20
24.13616132793258
 30
0.0
 10
5.232519270751692
 20
24.15592836277607
 30
0.0
 10
5.22746553464778
 20
24.17826156160906
 30
0.0
 10
5.233181090457445
 20
24.20065355965628
 30
0.0
 10
5.249024015518739
 20
24.22059427780388
 30
0.0
 10
5.273194146063172
 20
24.2356321390812
 30
0.0
 10
5.29932189928897
 20
24.24342538008325
 30
0.0
 10
5.316417318046663
 20
24.24419951923969
 30
0.0
 10
5.323005256017883
 20
24.2444978436514
 30
0.0
  0
LINE
  5
160
330
1F
100
AcDbEntity
  8
0
  6
Continuous
 62
     7
370
    30
100
AcDbLine
 10
2.698005256
 20
22.7314169362
 30
0.0
 11
2.698005256
 21
32.6064169109
 31
0.0
  0
SPLINE
  5
161
330
1F
100
AcDbEntity
  8
0
  6
Continuous
 62
     7
370
    30
100
AcDbSpline
210
0.0
220
0.0
230
1.0
 70
     8
 71
     3
 72
    12
 73
     8
 74
     0
 42
0.00000001
 43
0.00000001
 40
0.0
 40
0.0
 40
0.0
 40
0.0
 40
0.2448645464911212
 40
0.4897280088876194
 40
0.7346196044131414
 40
0.9795295108192892
 40
1.0
 40
1.0
 40
1.0
 40
1.0
 10
5.323005256017887
 20
31.20187250404587
 30
0.0
 10
5.333530550176958
 20
31.20115279882624
 30
0.0
 10
5.354581091896202
 20
31.19971339157336
 30
0.0
 10
5.382874056739134
 20
31.18850844416688
 30
0.0
 10
5.403314311175535
 20
31.171829952929
 30
0.0
 10
5.414102759573753
 20
31.15754194452395
 30
0.0
 10
5.414569658479232
 20
31.14950511591211
 30
0.0
 10
5.41460567338143
 20
31.1488851838603
 30
0.0
  0
SPLINE
  5
162
330
1F
100
AcDbEntity
  8
0
  6
Continuous
 62
     7
370
    30
100
AcDbSpline
210
0.0
220
0.0
230
1.0
 70
     8
 71
     3
 72
    12
 73
     8
 74
     0
 42
0.00000001
 43
0.00000001
 40
0.0
 40
0.0
 40
0.0
 40
0.0
 40
0.1181089624189062
 40
0.3612201671746109
 40
0.6043700760540051
 40
0.8475366848010213
 40
1.0
 40
1.0
 40
1.0
 40
1.0
 10
5.232144084380045
 20
31.14813244885208
 30
0.0
 10
5.232816783523346
 20
31.15171659639573
 30
0.0
 10
5.234874142186262
 20
31.16267822325604
 30
0.0
 10
5.249373918231365
 20
31.17868577551702
 30
0.0
 10
5.273098837733873
 20
31.19334312784845
 30
0.0
 10
5.299335282873622
 20
31.200838442634
 30
0.0
 10
5.316420970136392
 20
31.20158485877
 30
0.0
 10
5.323005256017887
 20
31.20187250404587
 30
0.0
  0
SPLINE
  5
163
330
1F
100
AcDbEntity
  8
0
  6
Continuous
 62
     7
370
    30
100
AcDbSpline
210
0.0
220
0.0
230
1.0
 70
     8
 71
     3
 72
    16
 73
    12
 74
     0
 42
0.00000001
 43
0.00000001
 40
0.0
 40
0.0
 40
0.0
 40
0.0
 40
0.0968867193813201
 40
0.2185667081376654
 40
0.3402660918860836
 40
0.4619657381136267
 40
0.5836460950525912
 40
0.7053177232211376
 40
0.8270048051863708
 40
0.9487074028256518
 40
0.9999999999999999
 40
0.9999999999999999
 40
0.9999999999999999
 40
0.9999999999999999
 10
5.414325485508028
 20
24.18962940625183
 30
0.0
 10
5.412475961356799
 20
24.18384355971548
 30
0.0
 10
5.408303620627979
 20
24.17079127102913
 30
0.0
 10
5.390015911529963
 20
24.15395112554878
 30
0.0
 10
5.364001578682691
 20
24.14109963645742
 30
0.0
 10
5.333041880516784
 20
24.13508598419271
 30
0.0
 10
5.301080296359864
 20
24.1364923644667
 30
0.0
 10
5.271404414515646
 20
24.14515682918098
 30
0.0
 10
5.248167081998418
 20
24.16025690544172
 30
0.0
 10
5.234357328398054
 20
24.17601021576197
 30
0.0
 10
5.232638841581789
 20
24.18651968519762
 30
0.0
 10
5.232129314989951
 20
24.18963571384142
 30
0.0
  0
LINE
  5
164
330
1F
100
AcDbEntity
  8
0
  6
Continuous
 62
     7
370
    30
100
AcDbLine
 10
5.854005256
 20
9.8574169109
 30
0.0
 11
5.854005256
 21
19.7324168856
 31
0.0
  0
SPLINE
  5
165
330
1F
100
AcDbEntity
  8
0
  6
Continuous
 62
     7
370
    30
100
AcDbSpline
210
0.0
220
0.0
230
1.0
 70
     8
 71
     3
 72
    11
 73
     7
 74
     0
 42
0.00000001
 43
0.00000001
 40
0.0
 40
0.0
 40
0.0
 40
0.0
 40
0.1502734307348419
 40
0.4489734550836791
 40
0.7476734788988845
 40
0.9999999999999999
 40
0.9999999999999999
 40
0.9999999999999999
 40
0.9999999999999999
 10
5.85400525601788
 20
19.73241688556203
 30
0.0
 10
5.854361208326475
 20
19.73946578588999
 30
0.0
 10
5.855424690653668
 20
19.76052585698376
 30
0.0
 10
5.867833093836349
 20
19.79401115853938
 30
0.0
 10
5.892550869009561
 20
19.826633853677
 30
0.0
 10
5.915497511109124
 20
19.83895673297197
 30
0.0
 10
5.926005256017887
 20
19.84459963582508
 30
0.0
  0
SPLINE
  5
166
330
1F
100
AcDbEntity
  8
0
  6
Continuous
 62
     7
370
    30
100
AcDbSpline
210
0.0
220
0.0
230
1.0
 70
     8
 71
     3
 72
    12
 73
     8
 74
     0
 42
0.00000001
 43
0.00000001
 40
0.0
 40
0.0
 40
0.0
 40
0.0
 40
0.0660120046282849
 40
0.3647958508862061
 40
0.6635796983468226
 40
0.9623635472556278
 40
0.9999999999999999
 40
0.9999999999999999
 40
0.9999999999999999
 40
0.9999999999999999
 10
5.926005256017887
 20
19.84427745972843
 30
0.0
 10
5.923063098030537
 20
19.84330007174748
 30
0.0
 10
5.906804130703571
 20
19.83789882568374
 30
0.0
 10
5.883250980974013
 20
19.81543403374186
 30
0.0
 10
5.860644241562223
 20
19.77985165214797
 30
0.0
 10
5.854244017766105
 20
19.74992371181866
 30
0.0
 10
5.854029279498674
 20
19.73417836916409
 30
0.0
 10
5.85400525601788
 20
19.73241688556203
 30
0.0
  0
LINE
  5
167
330
1F
100
AcDbEntity
  8
0
  6
Continuous
 62
     7
370
    30
100
AcDbLine
 10
2.698005256
 20
19.7324168856
 30
0.0
 11
5.854005256
 21
19.7324168856
 31
0.0
  0
SPLINE
  5
168
330
1F
100
AcDbEntity
  8
0
  6
Continuous
 62
     7
370
    30
100
AcDbSpline
210
0.0
220
0.0
230
1.0
 70
    11
 71
     3
 72
    26
 73
    22
 74
     0
 42
0.00000001
 43
0.00000001
 40
0.0
 40
0.0
 40
0.0
 40
0.0
 40
0.0536821331384452
 40
0.1073640318709029
 40
0.1610520136295462
 40
0.2147439545950574
 40
0.2684292861575941
 40
0.3221077583705749
 40
0.3757898244054181
 40
0.429480329571834
 40
0.4831709488430814
 40
0.5368531749872735
 40
0.5905316031720519
 40
0.6442167556493772
 40
0.6979086592069224
 40
0.751596803496673
 40
0.8052765479203451
 40
0.8589563612928268
 40
0.9126446034401935
 40
0.9663364821801546
 40
1.0
 40
1.0
 40
1.0
 40
1.0
 10
5.323005256017887
 20
18.35191849957808
 30
0.0
 10
5.333546210449979
 20
18.3512000084699
 30
0.0
 10
5.354628073286515
 20
18.34976302939087
 30
0.0
 10
5.382686377201314
 20
18.3385369407708
 30
0.0
 10
5.404018563545272
 20
18.32193186747948
 30
0.0
 10
5.416218309382714
 20
18.30107891352515
 30
0.0
 10
5.417908691367451
 20
18.27845807160016
 30
0.0
 10
5.408901531019256
 20
18.25656508930271
 30
0.0
 10
5.390212986617865
 20
18.2379178249944
 30
0.0
 10
5.36394661758967
 20
18.22468310266011
 30
0.0
 10
5.333063277258642
 20
18.21842463906011
 30
0.0
 10
5.301048129678652
 20
18.21988613030685
 30
0.0
 10
5.271510012851906
 20
18.22889164394224
 30
0.0
 10
5.247775077226862
 20
18.24437432470211
 30
0.0
 10
5.232519270751692
 20
18.26451743371103
 30
0.0
 10
5.227465534647797
 20
18.28699041211457
 30
0.0
 10
5.233181090457445
 20
18.30922504045331
 30
0.0
 10
5.249024015518752
 20
18.32877891614066
 30
0.0
 10
5.273194146063185
 20
18.34337478796109
 30
0.0
 10
5.299321899288979
 20
18.3508862805424
 30
0.0
 10
5.316417318046668
 20
18.35163136988369
 30
0.0
 10
5.323005256017887
 20
18.35191849957808
 30
0.0
  0
SPLINE
  5
169
330
1F
100
AcDbEntity
  8
0
  6
Continuous
 62
     7
370
    30
100
AcDbSpline
210
0.0
220
0.0
230
1.0
 70
    11
 71
     3
 72
    26
 73
    22
 74
     0
 42
0.00000001
 43
0.00000001
 40
0.0
 40
0.0
 40
0.0
 40
0.0
 40
0.0536821331384295
 40
0.1073640318709032
 40
0.1610520136295463
 40
0.2147439545950513
 40
0.2684292861575821
 40
0.322107758370571
 40
0.3757898244054043
 40
0.4294803295718147
 40
0.4831709488430766
 40
0.536853174987268
 40
0.590531603172048
 40
0.6442167556493679
 40
0.6979086592069071
 40
0.751596803496668
 40
0.8052765479203395
 40
0.8589563612928258
 40
0.9126446034401791
 40
0.9663364821801402
 40
0.9999999999999999
 40
0.9999999999999999
 40
0.9999999999999999
 40
0.9999999999999999
 10
5.323005256017896
 20
11.23791532217891
 30
0.0
 10
5.312464301585804
 20
11.23863381328709
 30
0.0
 10
5.291382438749271
 20
11.24007079236612
 30
0.0
 10
5.263324134834481
 20
11.2512968809862
 30
0.0
 10
5.241991948490502
 20
11.26790195427751
 30
0.0
 10
5.229792202653082
 20
11.28875490823186
 30
0.0
 10
5.22810182066834
 20
11.31137575015685
 30
0.0
 10
5.237108981016539
 20
11.33326873245428
 30
0.0
 10
5.255797525417926
 20
11.3519159967626
 30
0.0
 10
5.282063894446117
 20
11.36515071909689
 30
0.0
 10
5.312947234777149
 20
11.37140918269689
 30
0.0
 10
5.344962382357139
 20
11.36994769145016
 30
0.0
 10
5.37450049918388
 20
11.36094217781476
 30
0.0
 10
5.398235434808938
 20
11.34545949705489
 30
0.0
 10
5.413491241284073
 20
11.32531638804597
 30
0.0
 10
5.418544977388008
 20
11.30284340964243
 30
0.0
 10
5.412829421578328
 20
11.28060878130369
 30
0.0
 10
5.39698649651703
 20
11.26105490561634
 30
0.0
 10
5.372816365972606
 20
11.24645903379591
 30
0.0
 10
5.346688612746808
 20
11.2389475412146
 30
0.0
 10
5.329593193989119
 20
11.23820245187331
 30
0.0
 10
5.323005256017896
 20
11.23791532217891
 30
0.0
  0
LINE
  5
16A
330
1F
100
AcDbEntity
  8
0
  6
Continuous
 62
     7
370
    30
100
AcDbLine
 10
2.698005256
 20
9.8574169109
 30
0.0
 11
2.698005256
 21
19.7324168856
 31
0.0
  0
SPLINE
  5
16B
330
1F
100
AcDbEntity
  8
0
  6
Continuous
 62
     7
370
    30
100
AcDbSpline
210
0.0
220
0.0
230
1.0
 70
     8
 71
     3
 72
    12
 73
     8
 74
     0
 42
0.00000001
 43
0.00000001
 40
0.0
 40
0.0
 40
0.0
 40
0.0
 40
0.2404862122691852
 40
0.4809713598280379
 40
0.7214841374776378
 40
0.9620148985976422
 40
1.0
 40
1.0
 40
1.0
 40
1.0
 10
5.323005256017883
 20
18.32787250404584
 30
0.0
 10
5.333532442761454
 20
18.32715302177995
 30
0.0
 10
5.354586769641331
 20
18.32571406043354
 30
0.0
 10
5.382851344788683
 20
18.31450576861172
 30
0.0
 10
5.403399494618617
 20
18.29783998786624
 30
0.0
 10
5.414282826657897
 20
18.28300802455934
 30
0.0
 10
5.414675441462218
 20
18.27440731243484
 30
0.0
 10
5.41472898783124
 20
18.27323431309748
 30
0.0
  0
SPLINE
  5
16C
330
1F
100
AcDbEntity
  8
0
  6
Continuous
 62
     7
370
    30
100
AcDbSpline
210
0.0
220
0.0
230
1.0
 70
     8
 71
     3
 72
    12
 73
     8
 74
     0
 42
0.00000001
 43
0.00000001
 40
0.0
 40
0.0
 40
0.0
 40
0.0
 40
0.1274941440484554
 40
0.3680181325658658
 40
0.6085804133134577
 40
0.8491592162068315
 40
0.9999999999999999
 40
0.9999999999999999
 40
0.9999999999999999
 40
0.9999999999999999
 10
5.2318959405856
 20
18.27316676271407
 30
0.0
 10
5.23261538788545
 20
18.27708039321626
 30
0.0
 10
5.234692107986961
 20
18.28837728061227
 30
0.0
 10
5.249348471155392
 20
18.30469114390196
 30
0.0
 10
5.27310572993559
 20
18.31934167385063
 30
0.0
 10
5.299334285066811
 20
18.32683865313403
 30
0.0
 10
5.316420692576068
 20
18.32758491732486
 30
0.0
 10
5.323005256017887
 20
18.32787250404584
 30
0.0
  0
SPLINE
  5
16D
330
1F
100
AcDbEntity
  8
0
  6
Continuous
 62
     7
370
    30
100
AcDbSpline
210
0.0
220
0.0
230
1.0
 70
     8
 71
     3
 72
    12
 73
     8
 74
     0
 42
0.00000001
 43
0.00000001
 40
0.0
 40
0.0
 40
0.0
 40
0.0
 40
0.2448645464910758
 40
0.4897280088876087
 40
0.7346196044131276
 40
0.9795295108193192
 40
0.9999999999999999
 40
0.9999999999999999
 40
0.9999999999999999
 40
0.9999999999999999
 10
5.323005256017896
 20
11.26196131771116
 30
0.0
 10
5.312479961858833
 20
11.26268102293078
 30
0.0
 10
5.291429420139593
 20
11.26412043018367
 30
0.0
 10
5.263136455296666
 20
11.27532537759015
 30
0.0
 10
5.242696200860239
 20
11.29200386882803
 30
0.0
 10
5.231907752462068
 20
11.30629187723307
 30
0.0
 10
5.23144085355656
 20
11.31432870584493
 30
0.0
 10
5.231404838654361
 20
11.31494863789673
 30
0.0
  0
SPLINE
  5
16E
330
1F
100
AcDbEntity
  8
0
  6
Continuous
 62
     7
370
    30
100
AcDbSpline
210
0.0
220
0.0
230
1.0
 70
     8
 71
     3
 72
    12
 73
     8
 74
     0
 42
0.00000001
 43
0.00000001
 40
0.0
 40
0.0
 40
0.0
 40
0.0
 40
0.1181089624188431
 40
0.3612201671745312
 40
0.6043700760539812
 40
0.8475366848009475
 40
1.0
 40
1.0
 40
1.0
 40
1.0
 10
5.413866427655746
 20
11.31570137290494
 30
0.0
 10
5.413193728512445
 20
11.31211722536129
 30
0.0
 10
5.411136369849529
 20
11.30115559850099
 30
0.0
 10
5.396636593804422
 20
11.28514804624001
 30
0.0
 10
5.372911674301923
 20
11.27049069390858
 30
0.0
 10
5.346675229162174
 20
11.26299537912303
 30
0.0
 10
5.329589541899395
 20
11.26224896298702
 30
0.0
 10
5.323005256017896
 20
11.26196131771116
 30
0.0
  0
LINE
  5
16F
330
1F
100
AcDbEntity
  8
0
  6
Continuous
 62
     8
370
    30
100
AcDbLine
 10
5.3479248187
 20
27.5088017071
 30
0.0
 11
5.3479248187
 21
27.0789824563
 31
0.0
  0
LINE
  5
170
330
1F
100
AcDbEntity
  8
0
  6
Continuous
 62
     8
370
    30
100
AcDbLine
 10
5.2980856933
 20
27.079277281
 30
0.0
 11
5.2980856933
 21
27.5114161205
 31
0.0
  0
LINE
  5
171
330
1F
100
AcDbEntity
  8
0
  6
Continuous
 62
     8
370
    30
100
AcDbLine
 10
5.3479248187
 20
28.2588698099
 30
0.0
 11
5.3479248187
 21
27.8290068361
 31
0.0
  0
LINE
  5
172
330
1F
100
AcDbEntity
  8
0
  6
Continuous
 62
     8
370
    30
100
AcDbLine
 10
5.2980856933
 20
27.829279204
 30
0.0
 11
5.2980856933
 21
28.2612967729
 31
0.0
  0
LINE
  5
173
330
1F
100
AcDbEntity
  8
0
  6
Continuous
 62
     8
370
    30
100
AcDbLine
 10
25.9425206123
 20
7.6919169109
 30
0.0
 11
25.9425206123
 21
1.4474015546
 31
0.0
  0
LINE
  5
174
330
1F
100
AcDbEntity
  8
0
  6
Continuous
 62
     8
370
    30
100
AcDbLine
 10
7.9724898997
 20
1.4474015546
 30
0.0
 11
7.9724898997
 21
7.6919169109
 31
0.0
  0
LINE
  5
175
330
1F
100
AcDbEntity
  8
0
  6
Continuous
 62
     8
370
    30
100
AcDbLine
 10
7.9724898997
 20
34.8169169109
 30
0.0
 11
7.9724898997
 21
41.0164322672
 31
0.0
  0
LINE
  5
176
330
1F
100
AcDbEntity
  8
0
  6
Continuous
 62
     8
370
    30
100
AcDbLine
 10
25.9425206123
 20
41.0164322672
 30
0.0
 11
25.9425206123
 21
34.8169169109
 31
0.0
  0
LINE
  5
177
330
1F
100
AcDbEntity
  8
FORMAT
100
AcDbLine
 10
62.2569624715
 20
21.8022071281
 30
0.0
 11
62.2569624715
 21
19.6877826939
 31
0.0
  0
LINE
  5
178
330
1F
100
AcDbEntity
  8
FORMAT
100
AcDbLine
 10
62.2569624715
 20
19.6877826939
 30
0.0
 11
65.8559379261
 21
19.6877826939
 31
0.0
  0
LINE
  5
179
330
1F
100
AcDbEntity
  8
FORMAT
100
AcDbLine
 10
65.8559379261
 20
19.6877826939
 30
0.0
 11
65.8559379261
 21
17.8789450631
 31
0.0
  0
LINE
  5
17A
330
1F
100
AcDbEntity
  8
FORMAT
100
AcDbLine
 10
65.8559379261
 20
17.8789450631
 30
0.0
 11
68.721987774
 21
20.744994911
 31
0.0
  0
LINE
  5
17B
330
1F
100
AcDbEntity
  8
FORMAT
100
AcDbLine
 10
68.721987774
 20
20.744994911
 30
0.0
 11
65.8559379261
 21
23.611044759
 31
0.0
  0
LINE
  5
17C
330
1F
100
AcDbEntity
  8
FORMAT
100
AcDbLine
 10
65.8559379261
 20
23.611044759
 30
0.0
 11
65.8559379261
 21
21.8022071281
 31
0.0
  0
LINE
  5
17D
330
1F
100
AcDbEntity
  8
FORMAT
100
AcDbLine
 10
65.8559379261
 20
21.8022071281
 30
0.0
 11
62.2569624715
 21
21.8022071281
 31
0.0
  0
ENDSEC
  0
SECTION
  2
OBJECTS
  0
DICTIONARY
  5
C
330
0
100
AcDbDictionary
281
     1
  3
ACAD_GROUP
350
D
  3
ACAD_LAYOUT
350
1A
  3
ACAD_MLINESTYLE
350
17
  3
ACAD_PLOTSETTINGS
350
19
  3
ACAD_PLOTSTYLENAME
350
E
  3
ACAD_SCALELIST
350
4C
  3
AcDbVariableDictionary
350
17E
  0
DICTIONARY
  5
D
102
{ACAD_REACTORS
330
C
102
}
330
C
100
AcDbDictionary
281
     1
  0
DICTIONARY
  5
1A
102
{ACAD_REACTORS
330
C
102
}
330
C
100
AcDbDictionary
281
     1
  3
Layout1
350
1E
  3
Layout2
350
26
  3
Model
350
22
  0
DICTIONARY
  5
17
102
{ACAD_REACTORS
330
C
102
}
330
C
100
AcDbDictionary
281
     1
  3
Standard
350
18
  0
DICTIONARY
  5
19
102
{ACAD_REACTORS
330
C
102
}
330
C
100
AcDbDictionary
281
     1
  0
ACDBDICTIONARYWDFLT
  5
E
102
{ACAD_REACTORS
330
C
102
}
330
C
100
AcDbDictionary
281
     1
  3
Normal
350
F
100
AcDbDictionaryWithDefault
340
F
  0
DICTIONARY
  5
4C
102
{ACAD_REACTORS
330
C
102
}
330
C
100
AcDbDictionary
281
     1
  3
A0
350
4D
  3
A1
350
4E
  3
A2
350
4F
  3
A3
350
50
  3
A4
350
51
  3
A5
350
52
  3
A6
350
53
  3
A7
350
54
  3
A8
350
55
  3
A9
350
56
  3
B0
350
57
  3
B1
350
58
  3
B2
350
59
  3
B3
350
5A
  3
B4
350
5B
  3
B5
350
5C
  3
B6
350
5D
  3
B7
350
5E
  3
B8
350
5F
  3
B9
350
60
  3
C0
350
61
  3
C1
350
62
  3
C2
350
63
  3
C3
350
64
  3
C4
350
65
  3
C5
350
66
  3
C6
350
67
  3
C7
350
68
  3
C8
350
69
  3
C9
350
6A
  3
D0
350
6B
  3
D1
350
6C
  3
D2
350
6D
  0
DICTIONARY
  5
17E
102
{ACAD_REACTORS
330
C
102
}
330
C
100
AcDbDictionary
281
     1
  3
CANNOSCALE
350
17F
  0
LAYOUT
  5
1E
102
{ACAD_REACTORS
330
1A
102
}
330
1A
100
AcDbPlotSettings
  1

  2
none_device
  4

  6

 40
0.0
 41
0.0
 42
0.0
 43
0.0
 44
0.0
 45
0.0
 46
0.0
 47
0.0
 48
0.0
 49
0.0
140
0.0
141
0.0
142
1.0
143
1.0
 70
   688
 72
     0
 73
     0
 74
     5
  7

 75
    16
147
1.0
148
0.0
149
0.0
100
AcDbLayout
  1
Layout1
 70
     1
 71
     1
 10
0.0
 20
0.0
 11
12.0
 21
9.0
 12
0.0
 22
0.0
 32
0.0
 14
1.0000000000E+20
 24
1.0000000000E+20
 34
1.0000000000E+20
 15
-1.0000000000E+20
 25
-1.0000000000E+20
 35
-1.0000000000E+20
146
0.0
 13
0.0
 23
0.0
 33
0.0
 16
1.0
 26
0.0
 36
0.0
 17
0.0
 27
1.0
 37
0.0
 76
     0
330
1B
  0
LAYOUT
  5
26
102
{ACAD_REACTORS
330
1A
102
}
330
1A
100
AcDbPlotSettings
  1

  2
none_device
  4

  6

 40
0.0
 41
0.0
 42
0.0
 43
0.0
 44
0.0
 45
0.0
 46
0.0
 47
0.0
 48
0.0
 49
0.0
140
0.0
141
0.0
142
1.0
143
1.0
 70
   688
 72
     0
 73
     0
 74
     5
  7

 75
    16
147
1.0
148
0.0
149
0.0
100
AcDbLayout
  1
Layout2
 70
     1
 71
     2
 10
0.0
 20
0.0
 11
0.0
 21
0.0
 12
0.0
 22
0.0
 32
0.0
 14
0.0
 24
0.0
 34
0.0
 15
0.0
 25
0.0
 35
0.0
146
0.0
 13
0.0
 23
0.0
 33
0.0
 16
1.0
 26
0.0
 36
0.0
 17
0.0
 27
1.0
 37
0.0
 76
     0
330
23
  0
LAYOUT
  5
22
102
{ACAD_REACTORS
330
1A
102
}
330
1A
100
AcDbPlotSettings
  1

  2
none_device
  4

  6

 40
0.0
 41
0.0
 42
0.0
 43
0.0
 44
0.0
 45
0.0
 46
0.0
 47
0.0
 48
0.0
 49
0.0
140
0.0
141
0.0
142
1.0
143
1.0
 70
  1712
 72
     0
 73
     0
 74
     0
  7

 75
     0
147
1.0
148
0.0
149
0.0
100
AcDbLayout
  1
Model
 70
     1
 71
     0
 10
0.0
 20
0.0
 11
70.0
 21
42.0
 12
0.0
 22
0.0
 32
0.0
 14
0.0
 24
0.0
 34
0.0
 15
70.0
 25
42.0
 35
0.0
146
0.0
 13
0.0
 23
0.0
 33
0.0
 16
1.0
 26
0.0
 36
0.0
 17
0.0
 27
1.0
 37
0.0
 76
     0
330
1F
331
29
  0
MLINESTYLE
  5
18
102
{ACAD_REACTORS
330
17
102
}
330
17
100
AcDbMlineStyle
  2
Standard
 70
     0
  3

 62
   256
 51
90.0
 52
90.0
 71
     2
 49
0.5
 62
   256
  6
BYLAYER
 49
-0.5
 62
   256
  6
BYLAYER
  0
ACDBPLACEHOLDER
  5
F
102
{ACAD_REACTORS
330
E
102
}
330
E
  0
SCALE
  5
4D
102
{ACAD_REACTORS
330
4C
102
}
330
4C
100
AcDbScale
 70
     0
300
1:1
140
1.0
141
1.0
290
     1
  0
SCALE
  5
4E
102
{ACAD_REACTORS
330
4C
102
}
330
4C
100
AcDbScale
 70
     0
300
1:2
140
1.0
141
2.0
290
     0
  0
SCALE
  5
4F
102
{ACAD_REACTORS
330
4C
102
}
330
4C
100
AcDbScale
 70
     0
300
1:4
140
1.0
141
4.0
290
     0
  0
SCALE
  5
50
102
{ACAD_REACTORS
330
4C
102
}
330
4C
100
AcDbScale
 70
     0
300
1:5
140
1.0
141
5.0
290
     0
  0
SCALE
  5
51
102
{ACAD_REACTORS
330
4C
102
}
330
4C
100
AcDbScale
 70
     0
300
1:8
140
1.0
141
8.0
290
     0
  0
SCALE
  5
52
102
{ACAD_REACTORS
330
4C
102
}
330
4C
100
AcDbScale
 70
     0
300
1:10
140
1.0
141
10.0
290
     0
  0
SCALE
  5
53
102
{ACAD_REACTORS
330
4C
102
}
330
4C
100
AcDbScale
 70
     0
300
1:16
140
1.0
141
16.0
290
     0
  0
SCALE
  5
54
102
{ACAD_REACTORS
330
4C
102
}
330
4C
100
AcDbScale
 70
     0
300
1:20
140
1.0
141
20.0
290
     0
  0
SCALE
  5
55
102
{ACAD_REACTORS
330
4C
102
}
330
4C
100
AcDbScale
 70
     0
300
1:30
140
1.0
141
30.0
290
     0
  0
SCALE
  5
56
102
{ACAD_REACTORS
330
4C
102
}
330
4C
100
AcDbScale
 70
     0
300
1:40
140
1.0
141
40.0
290
     0
  0
SCALE
  5
57
102
{ACAD_REACTORS
330
4C
102
}
330
4C
100
AcDbScale
 70
     0
300
1:50
140
1.0
141
50.0
290
     0
  0
SCALE
  5
58
102
{ACAD_REACTORS
330
4C
102
}
330
4C
100
AcDbScale
 70
     0
300
1:100
140
1.0
141
100.0
290
     0
  0
SCALE
  5
59
102
{ACAD_REACTORS
330
4C
102
}
330
4C
100
AcDbScale
 70
     0
300
2:1
140
2.0
141
1.0
290
     0
  0
SCALE
  5
5A
102
{ACAD_REACTORS
330
4C
102
}
330
4C
100
AcDbScale
 70
     0
300
4:1
140
4.0
141
1.0
290
     0
  0
SCALE
  5
5B
102
{ACAD_REACTORS
330
4C
102
}
330
4C
100
AcDbScale
 70
     0
300
8:1
140
8.0
141
1.0
290
     0
  0
SCALE
  5
5C
102
{ACAD_REACTORS
330
4C
102
}
330
4C
100
AcDbScale
 70
     0
300
10:1
140
10.0
141
1.0
290
     0
  0
SCALE
  5
5D
102
{ACAD_REACTORS
330
4C
102
}
330
4C
100
AcDbScale
 70
     0
300
100:1
140
100.0
141
1.0
290
     0
  0
SCALE
  5
5E
102
{ACAD_REACTORS
330
4C
102
}
330
4C
100
AcDbScale
 70
     0
300
1/128" = 1'-0"
140
0.0078125
141
12.0
290
     0
  0
SCALE
  5
5F
102
{ACAD_REACTORS
330
4C
102
}
330
4C
100
AcDbScale
 70
     0
300
1/64" = 1'-0"
140
0.015625
141
12.0
290
     0
  0
SCALE
  5
60
102
{ACAD_REACTORS
330
4C
102
}
330
4C
100
AcDbScale
 70
     0
300
1/32" = 1'-0"
140
0.03125
141
12.0
290
     0
  0
SCALE
  5
61
102
{ACAD_REACTORS
330
4C
102
}
330
4C
100
AcDbScale
 70
     0
300
1/16" = 1'-0"
140
0.0625
141
12.0
290
     0
  0
SCALE
  5
62
102
{ACAD_REACTORS
330
4C
102
}
330
4C
100
AcDbScale
 70
     0
300
3/32" = 1'-0"
140
0.09375
141
12.0
290
     0
  0
SCALE
  5
63
102
{ACAD_REACTORS
330
4C
102
}
330
4C
100
AcDbScale
 70
     0
300
1/8" = 1'-0"
140
0.125
141
12.0
290
     0
  0
SCALE
  5
64
102
{ACAD_REACTORS
330
4C
102
}
330
4C
100
AcDbScale
 70
     0
300
3/16" = 1'-0"
140
0.1875
141
12.0
290
     0
  0
SCALE
  5
65
102
{ACAD_REACTORS
330
4C
102
}
330
4C
100
AcDbScale
 70
     0
300
1/4" = 1'-0"
140
0.25
141
12.0
290
     0
  0
SCALE
  5
66
102
{ACAD_REACTORS
330
4C
102
}
330
4C
100
AcDbScale
 70
     0
300
3/8" = 1'-0"
140
0.375
141
12.0
290
     0
  0
SCALE
  5
67
102
{ACAD_REACTORS
330
4C
102
}
330
4C
100
AcDbScale
 70
     0
300
1/2" = 1'-0"
140
0.5
141
12.0
290
     0
  0
SCALE
  5
68
102
{ACAD_REACTORS
330
4C
102
}
330
4C
100
AcDbScale
 70
     0
300
3/4" = 1'-0"
140
0.75
141
12.0
290
     0
  0
SCALE
  5
69
102
{ACAD_REACTORS
330
4C
102
}
330
4C
100
AcDbScale
 70
     0
300
1" = 1'-0"
140
1.0
141
12.0
290
     0
  0
SCALE
  5
6A
102
{ACAD_REACTORS
330
4C
102
}
330
4C
100
AcDbScale
 70
     0
300
1-1/2" = 1'-0"
140
1.5
141
12.0
290
     0
  0
SCALE
  5
6B
102
{ACAD_REACTORS
330
4C
102
}
330
4C
100
AcDbScale
 70
     0
300
3" = 1'-0"
140
3.0
141
12.0
290
     0
  0
SCALE
  5
6C
102
{ACAD_REACTORS
330
4C
102
}
330
4C
100
AcDbScale
 70
     0
300
6" = 1'-0"
140
6.0
141
12.0
290
     0
  0
SCALE
  5
6D
102
{ACAD_REACTORS
330
4C
102
}
330
4C
100
AcDbScale
 70
     0
300
1'-0" = 1'-0"
140
12.0
141
12.0
290
     0
  0
DICTIONARYVAR
  5
17F
102
{ACAD_REACTORS
330
17E
102
}
330
17E
100
DictionaryVariables
280
     0
  1
1:1
  0
ENDSEC
  0
EOF
